Song name
# A B C D E F G H I J K L M N O P Q R S T U V W X Y Z

Smile Empty Soul - Morning Light tab

Artist: Smile Empty Soul
Song: Morning Light
Tabbed by MattCiessan.

Tuning: Standard Half Step Down. Eb, Ab, Db, Gb, Bb, eB

Intro and Verse 
eb|-----------------------------------------------------------------------|
Bb|-----------------------------------------------------------------------|
Gb|-----0--------0--------0--------0--------------------------------------|
Db|---2---2----2---2----0---0----0---0------8-------8-------8-------8-----|X6
Ab|-3--------3----------------------------6---6---6---6---6---6---6---6---|
Eb|--------------------3-------3---------6-------6-------6-------6--------|


Chorus
eb|-----------------------------------------------------------------------|
Bb|-----------------------------------------------------------------------|
Gb|-55-5555555--33-3333333------------------------------------------------|
Db|-55-5555555--33-3333333--66-66-55-55--33-3333333-----------------------|X2
Ab|-33-3333333--11-1111111--66-66-55-55--33-3333333-----------------------|
Eb|-------------------------44-44-33-33--11-1111111-----------------------|
    ^^ ^v^v^v^  ^^ ^v^v^v^  ^^ ^v ^^ ^v  ^^ ^v^v^v^


Intro and Verse 
eb|-----------------------------------------------------------------------|
Bb|-----------------------------------------------------------------------|
Gb|-----0--------0--------0--------0--------------------------------------|
Db|---2---2----2---2----0---0----0---0------8-------8-------8-------8-----|X5
Ab|-3--------3----------------------------6---6---6---6---6---6---6---6---|
Eb|--------------------3-------3---------6-------6-------6-------6--------|

Chorus
eb|-----------------------------------------------------------------------|
Bb|-----------------------------------------------------------------------|
Gb|-55-5555555--33-3333333------------------------------------------------|
Db|-55-5555555--33-3333333--66-66-55-55--33-3333333-----------------------|X2
Ab|-33-3333333--11-1111111--66-66-55-55--33-3333333-----------------------|
Eb|-------------------------44-44-33-33--11-1111111-----------------------|
    ^^ ^v^v^v^  ^^ ^v^v^v^  ^^ ^v ^^ ^v  ^^ ^v^v^v^

Bridge
eb|-----------------------------------------------------------------------|
Bb|-----------------------------------------------------------------------|
Gb|-5555555555555555-------------------------------------------33333333---|
Db|-5555555555555555-2222222222222222-3333333333333333-6666666633333333---|X2
Ab|-3333333333333333-2222222222222222-3333333333333333-6666666611111111---|
Eb|------------------0000000000000000-1111111111111111-44444444-----------|

eb|-----------------------------------------------------------------------|
Bb|-----------------------------------------------------------------------|
Gb|-----------------------------------------------------------------------|
Db|-6666666655555555-3~~~---xx--------------------------------------------|
Ab|-6666666655555555-3~~~---xx--------------------------------------------|
Eb|-4444444433333333-1~~~---xx--------------------------------------------|


End Chorus
eb|-----------------------------------------------------------------------|
Bb|-----------------------------------------------------------------------|
Gb|-55-5555555--33-3333333------------------------------------------------|
Db|-55-5555555--33-3333333--66-66-55-55--33-3333333-----------------------|
Ab|-33-3333333--11-1111111--66-66-55-55--33-3333333-----------------------|
Eb|-------------------------44-44-33-33--11-1111111-----------------------|
    ^^ ^v^v^v^  ^^ ^v^v^v^  ^^ ^v ^^ ^v  ^^ ^v^v^v^

eb|-----------------------------------------------------------------------|
Bb|-----------------------------------------------------------------------|
Gb|-55-5555555--33-3333333------------------------------------------------|
Db|-55-5555555--33-3333333--66-66-55-55-66-66-55-55-66-66-55-55--3~~~2~~~-|
Ab|-33-3333333--11-1111111--66-66-55-55-66-66-55-55-66-66-55-55--3~~~2~~~-|
Eb|-------------------------44-44-33-33-44-44-33-33-44-44-33-33--1~~~0~~~-|
    ^^ ^v^v^v^  ^^ ^v^v^v^  ^^ ^v ^^ ^v ^^ ^v ^^ ^v ^^ ^v ^^ ^v 

Key:
^ downstroke
v upstroke
~ hold note out
x mute strings

I tabbed this out cause all the other tabs were completely wrong.
Any questions or comments on how to play or improve this, email me at: MattCiessan@hotmail.com 


Tap to rate this tab
# A B C D E F G H I J K L M N O P Q R S T U V W X Y Z