Song name
# A B C D E F G H I J K L M N O P Q R S T U V W X Y Z

Smile Empty Soul - Out To Sea tab

Smile Empty Soul - Out to Sea

Album: Vultures
Instrument: Guitar
Tuning: Db Ab Db Gb Bb eb
Composer: Sean Danielsen, Ryan Martin, Jake Kilmer & Mike Booth

Intro Part 1 (Guitar 1) (4x) Clean

Eb|-------------------------------|
Bb|-------------------------------|
Gb|-------------------------------|
Db|-5---5-5-----------------------|
Ab|-5---5-5-----------------------|
Db|-5---5-5-0-5-0-5-6-5-0-8-6-5-6-|

Intro Part 2 (Guitars 1 & 2) (4x) Distortion
 
Eb|-------------------------------|
Bb|-------------------------------|
Gb|-------------------------------|
Db|-5---5-5-0-5-0-5-6-5-0-8-6-5-6-|
Ab|-5---5-5-0-5-0-5-6-5-0-8-6-5-6-|
Db|-5---5-5-0-5-0-5-6-5-0-8-6-5-6-|

Verse 1 (Guitar 1)

Eb|-------------------------|
Bb|-------------------------|
Gb|-------------------------| (2x)
Db|-5-x-5-5-x-5-5-x-5-5-x-3-|
Ab|-5-x-5-5-x-5-5-x-5-5-x-3-|
Db|-5-x-5-5-x-5-5-x-5-5-x-3-|

Eb|-------------------------|
Bb|-------------------------|
Gb|-7---7-7---7-7---7-7---5-| (2x)
Db|-5-x-5-5-x-5-5-x-5-5-x-3-|
Ab|-5-x-5-5-x-5-5-x-5-5-x-3-|
Db|-5-x-5-5-x-5-5-x-5-5-x-3-|

Verse 1 (Guitar 2) (Play on 2nd & 4th measures)

Eb|-------------|
Bb|-------------|
Gb|-7-----5-----| (2x)
Db|---8-7---8-7-|
Ab|-------------|
Db|-------------|

Chorus 1 (Guitar 1) (2x)

Eb|---------|
Bb|---------|
Gb|---------| 
Db|-5-8-1-0-|
Ab|-5-8-1-0-|
Db|-5-8-1-0-|

Chorus 1 (Guitar 2) (Listen for timing) (2x)

Eb|-6-6-5-5-6-6-8---10-10-8-8-6-6-5-|
Bb|---------------------------------|
Gb|---------------------------------| 
Db|---------------------------------|
Ab|---------------------------------|
Db|---------------------------------|

Interlude (Guitars 1 & 2) (2x)

Eb|-------------------------------|
Bb|-------------------------------|
Gb|-------------------------------|
Db|-5---5-5-0-5-0-5-6-5-0-8-6-5-6-|
Ab|-5---5-5-0-5-0-5-6-5-0-8-6-5-6-|
Db|-5---5-5-0-5-0-5-6-5-0-8-6-5-6-|

Verse 2 (Guitar 1)

Eb|-------------------------|
Bb|-------------------------|
Gb|-------------------------| (2x)
Db|-5-x-5-5-x-5-5-x-5-5-x-3-|
Ab|-5-x-5-5-x-5-5-x-5-5-x-3-|
Db|-5-x-5-5-x-5-5-x-5-5-x-3-|

Eb|-------------------------|
Bb|-------------------------|
Gb|-7---7-7---7-7---7-7---5-| (2x)
Db|-5-x-5-5-x-5-5-x-5-5-x-3-|
Ab|-5-x-5-5-x-5-5-x-5-5-x-3-|
Db|-5-x-5-5-x-5-5-x-5-5-x-3-|

Verse 2 (Guitar 2) (Play on 2nd & 4th measures)

Eb|-------------|
Bb|-------------|
Gb|-7-----5-----| (2x)
Db|---8-7---8-7-|
Ab|-------------|
Db|-------------|

Chorus 2 (Guitar 1) (2x)

Eb|---------|
Bb|---------|
Gb|---------| 
Db|-5-8-1-0-|
Ab|-5-8-1-0-|
Db|-5-8-1-0-|

Chorus 2 (Guitar 2) (Listen for timing) (2x)

Eb|-6-6-5-5-6-6-8---10-10-8-8-6-6-5-|
Bb|---------------------------------|
Gb|---------------------------------| 
Db|---------------------------------|
Ab|---------------------------------|
Db|---------------------------------|

Bridge Part 1 (Guitars 1 & 2) (2x)

Eb|--------------------------|
Bb|--------------------------|
Gb|--------------------------| 
Db|-5-5-5-6-5-3-8-5-3-10-8-6-|
Ab|-5-5-5-6-5-3-8-5-3-10-8-6-|
Db|-5-5-5-6-5-3-8-5-3-10-8-6-|

Bridge Part 2 (Guitar 1) (5x)

Eb|-----------------|
Bb|-----------------|
Gb|-------3-5-------| 
Db|-5-3-1-3-5-0-1-3-|
Ab|-5-3-1-1-3-0-1-3-|
Db|-5-3-1-----0-1-3-|

Bridge Part 2 (Guitar 2) (Listen for timing)

Eb|---------------------------------------------|
Bb|---------------------------------------------|
Gb|------------------------5-0-5-7-0-7-8-0-8-10-| (2x)
Db|-5-0-5-7-0-7-8-0-8-10------------------------|
Ab|---------------------------------------------|
Db|---------------------------------------------|

Interlude (Guitars 1 & 2) (4x)

Eb|-------------------------------|
Bb|-------------------------------|
Gb|-------------------------------|
Db|-5---5-5-0-5-0-5-6-5-0-8-6-5-6-|
Ab|-5---5-5-0-5-0-5-6-5-0-8-6-5-6-|
Db|-5---5-5-0-5-0-5-6-5-0-8-6-5-6-|

Chorus 3 (Guitar 1) (2x)

Eb|---------|
Bb|---------|
Gb|---------| 
Db|-5-8-1-0-|
Ab|-5-8-1-0-|
Db|-5-8-1-0-|

Chorus 3 (Guitar 2) (Listen for timing) (2x)

Eb|-6-6-5-5-6-6-8---10-10-8-8-6-6-5-|
Bb|---------------------------------|
Gb|---------------------------------| 
Db|---------------------------------|
Ab|---------------------------------|
Db|---------------------------------|

Outro (Guitar 1)

Eb|-------------------------------|
Bb|-------------------------------|
Gb|-------------------------------| (3x)
Db|-5---5-5-0-5-0-5-6-5-0-8-6-5-6-| 
Ab|-5---5-5-0-5-0-5-6-5-0-8-6-5-6-|
Db|-5---5-5-0-5-0-5-6-5-0-8-6-5-6-|

Eb|-----------------------------|
Bb|-----------------------------|
Gb|-----------------------------| (1x)
Db|-5---5-5-0-5-0-5-6-5-0-8-6-1-| 
Ab|-5---5-5-0-5-0-5-6-5-0-8-6-1-|
Db|-5---5-5-0-5-0-5-6-5-0-8-6-1-|

Outro (Guitar 2) (4x)

Eb|-------|
Bb|-------|
Gb|-7-----|
Db|---8-7-|
Ab|-------|
Db|-------|

Tap to rate this tab
# A B C D E F G H I J K L M N O P Q R S T U V W X Y Z