Song name
# A B C D E F G H I J K L M N O P Q R S T U V W X Y Z

Smile Empty Soul - The Other Side tab

-----------------------------------------------------------------------------
			     The Other Side - Smile Empty Soul
-----------------------------------------------------------------------------
Tabbed by:JOHN ORGLER / COLDFAN
Email:coldfan27@yahoo.com

Tuning: Drop D-1/2 step down
OK WITH THE OTHER VERSION OF THIS SONG THAT I SEE HERE ..... THERE ARE A FEW THINGS THAT 
WERE WRONG CHORDS, LOCATION ON FRET AND A COUPLE OTHER THINGS. BUT HEY EVERYONE MAKES 
MISTAKES RIGHT.


If someone can help with the solo it would be much appreciated.
(its gonna take me a little longer to get it even though its short)

-Lyrics-

I walk into the room
You don't have to scream i can hear you
Bad trip the needle sticks
You get your fix from confrontation
I tried to make it past
I do wanna get into it right now
Can this family have one day
To get away from all the pain

Through the night i see the light
Shining from the neighbors windows
I dream of life where i am safe
In a home where i am not alone
Someday i will lay me down
On the grass where everything is greener
It always seemed so good on the other side

Sick of all the heat
You can taste the hate in the air
Running through this family uncomfortably
It's burning me
Is anybody there in your eyes there's nothing to see
Just because your dreams have died
Don't drag me down i've still got mine

Neighbor boy runs up to me
His eyes all black and blue
I say what happened to you Boy
He said my daddy flew
Off the hook cause i was playing to loud
I guess he couldn't here the TV
Said son im gonna teach you a lesson
And then he
And then he

AGHHHHHHHH!!!!!!!!!!!

Maybe its not so good on the other side
Maybe its not so good on the other side
It always seemed so good on the other side
It always looked so good
It always seemed so good

And it always seemed so good on the other side <--(3x)

------------------


Ok as soon as the music starts so does the vocals

Lead - Verse
e|--------------------------------------------------------------------------|
B|--------------------------------------------------------------------------|
G|--4--4--44-----2-2--2p0---5--5-5--5----2-2-2------------------------------|
D|--2--2--22--x--0-0--0-----5--3-3--3--x-2-2-2------------------------------|
A|--2--2--22--x--0-0--0-----3--3-3--3--x--------0---------------------------|
E|--2--2--22--x--0-0--0----------------x--------0---------------------------|



2nd guitar (Not Played Live) Dubbed over Lead
e|--------------------------------------------------------------------------|
B|-10p8---8-----------------------------------------------------------------|
G|------9-------------------------------------------------------------------|
D|--------------------------------------------------------------------------|
A|--------------------------------------------------------------------------|
E|--------------------------------------------------------------------------|


Chorus
e|--------------------------------------------------------------------------|
B|--------------------------------------------------------------------------|
G|------------------------------------------2-2-2-2p0-----------------------|
D|-2-------4-------5-------7-------5-5-5-5--2-2-2-2p0-----------------------|
A|-2--x-x--4--x-x--5--x-x--7--x-x--3-3-3-3----------------------------------|
E|-2--x-x--4--x-x--5--x-x--7--x-x-------------------------------------------|



-Bridge-
e|--------------------------------------------------------------------------|
B|--------------------------------------------------------------------------|
G|-------12-12-12-12-12-11-11-------------11-11-11--12-11-10-10-------------|
D|--2-2---0--0--0--0--0--0--0--10-10--10---0--0--0---0--0--0--0-------------|
A|--2-2--10-10-10-10-10--9--9--10-10--10---9--9--9--10--9--8--8-------------|
E|--2-2------------------------10-10--10------------------------------------|


e|--------------------------------------------------------------------------|
B|--------------------------------------------------------------------------|
G|-------12-12-12-12-12-14-14-------------16-16~~~~~~-----------------------|
D|--2-2---0--0--0--0--0--0--0--10-10--10---0--------------------------------|
A|--2-2--10-10-10-10-10-12-12--10-10--10--14--------------------------------|
E|--2-2------------------------10-10--10------------------------------------|




************************************

| /   slide up
| \   slide down
| h   hammer-on
| p   pull-off
| ~   vibrato
| +   harmonic
| x   Mute note
| b   Bend
| pb  Pre-bend
| br  Bend release
| pbr Pre-bend release
| brb Bend release bend

************************************
Tap to rate this tab
 
# A B C D E F G H I J K L M N O P Q R S T U V W X Y Z