Song name
# A B C D E F G H I J K L M N O P Q R S T U V W X Y Z

Smoking Popes - Pure Imagination tab

alrite this is by he smoking popes and this is my first tab so if it sucks it sucks

intro/verse

e---------------------------------------|
a -------------------00-024-------------|
d----22----4-----------------000000000--| x5
g------2/4---2---2----------------------|

the that pre part
e-222222222222
a-------------|
d-------------|
g-------------|

pre chorus
e--3---2---------0-----------------0------1--2----------00-----|
a---------------------5-------------------------------2--------|
d------------------------5-------------------------------------|
g--------------------------------------------------------------|

then go back to the verse when the solo plays and then your baiscally
done
Tap to rate this tab
# A B C D E F G H I J K L M N O P Q R S T U V W X Y Z