Guitaretab - guitar tabs
Song name
# A B C D E F G H I J K L M N O P Q R S T U V W X Y Z

Soda Stereo - De Musica Ligera tab

Hola a todos, esta es la musica ligera de soda stereo, la version del disco del Ultimo Concierto.
Cualquier sugerencia mandenmela a mlasap@hotmail.com.

()= Bajo (si la tocan solos)
/= slide
h= hammer on
p= pull off

  Ella durmió                   al calor de las ma-
e-----------------------------------------------------|
B-----------------------------------------------------|
G-----------------------------------------------------|
D-----------------------------------------------------|
A-(2)(2)(2)(2)------------(5)(5)(5)(5)----------------|
E-------------(3)(3)(3)(3)------------(5)(5)(5)(5)----|

  aaaaaaaaaaaasaaaaaaaaas
e-----------------------------------------------------|
B-----------------------------------------------------|
G-----------------------------------------------------|
D-----------------------------------------------------|
A-(2)(2)(2)(2)------------(5)(5)(5)(5)----------------|
E-------------(3)(3)(3)(3)------------(5)(5)(5)(5)----|

Y yo desperté                      queriendo soñaa-
e-----------------------------------------------------|
B-----------------------------------------------------|
G-----------------------------------------------------|
D-----------------------------------------------------|
A-(2)(2)(2)(2)------------(5)(5)(5)(5)----------------|
E-------------(3)(3)(3)(3)------------(5)(5)(5)(5)----|

  aaaaaaaaaarla
e-----------------------------------------------------|
B-----------------------------------------------------|
G-----------------------------------------------------|
D-----------------------------------------------------|
A-(2)(2)(2)(2)------------(5)(5)(5)(5)----------------|
E-------------(3)(3)(3)(3)------------(5)(5)(5)(5)----|

Algún tiempo atrás                pense en escrii-
e-----------------------------------------------------|
B-----------------------------------------------------|
G-----------------------------------------------------|
D-----------------------------------------------------|
A-(2)(2)(2)(2)------------(5)(5)(5)(5)----------------|
E-------------(3)(3)(3)(3)------------(5)(5)(5)(5)----|

  biiiiiiiiiiirle
e-----------------------------------------------------|
B-----------------------------------------------------|
G-----------------------------------------------------|
D-----------------------------------------------------|
A-(2)(2)(2)(2)------------(5)(5)(5)(5)----------------|
E-------------(3)(3)(3)(3)------------(5)(5)(5)(5)----|

Más nunca sorté en                 las tramapas del
e-----------------------------------------------------|
B-----------------------------------------------------|
G-----------------------------------------------------|
D-----------------------------------------------------|
A-(2)(2)(2)(2)------------(5)(5)(5)(5)----------------|
E-------------(3)(3)(3)(3)------------(5)(5)(5)(5)----|

   amooooor
e--------------------------3-3-3-0-0-----|
B--------------------------3-3-3-2-2-----|
G--------------------------0-0-0-2-2-----|
D--------------------------0-0-0-2-2-----|
A-(2)(2)(2)(2)-------------2-2-2-0-0-----|
E-------------(3)(3)(3)(3)-3-3-3-0-0-----|

Yo quiero amooor, de música ligera
Nada nos libra, nada más quedaaa

e-3-2-0---|
B-3-3-2---|
G-0-2-2---|
D-0-0-2---|
A-2---0---|
E-3---0---|

Nada más quedaaaaaaaaa

e-2-2--3-3-3-3--2-2--0-0-0-0---|
B-2-2--3-3-3-3--3-3--2-2-2-2---|
G-4-4--0-0-0-0--2-2--2-2-2-2---|
D-4-4--0-0-0-0--0-0--2-2-2-2---|
A-2-2--2-2-2-2-------0-0-0-0---|
E-2-2--3-3-3-3-------0-0-0-0---|

e-2-2--3-3-3-3--2-2--0-0-0-0---|
B-2-2--3-3-3-3--3-3--2-2-2-2---|
G-4-4--0-0-0-0--2-2--2-2-2-2---|
D-4-4--0-0-0-0--0-0--2-2-2-2---|
A-2-2--2-2-2-2-------0-0-0-0---|
E-2-2--3-3-3-3-------0-0-0-0---|

Solo de bajo
e------------------------------------------------------------------|
B------------------------------------------------------------------|
G------------------------------------------------------------------|
D------------------------------------------------------------------|
A-(2)(2)(4)(5)--(5)(5)(4)(2)(4)(2)(0)---(2)---------(5)------------|
E------------------------------------(2)---(3)(3)(3)---(5)(5)(5)---|

e------------------------------------------------------------------|
B------------------------------------------------------------------|
G------------------------------------------------------------------|
D------------------------(4)(2)-------------------(7)--------------|
A-(5)(5)(4)(5)(5)(5)--(5)------(4)(2)----------(5)---(5)(7)--------|
E------------------------------------(4/6)(7)----------------------|

  No le enviaré         cenizas de  rooooosaaas
e-----------------3-2-2-----------------------------3-2-2---------------|
B-----------------3-3-3-----------------------------3-3-3---------------|
G-----------------0-2-2-----------------------------0-2-2---------------|
D-----------------0-0-0-----------------------------0-0-0---------------|
A-(2)(2)----------2-----------------(2)(2)----------2-------------------|
E-------(3)(3)(3)-3-----(5)(5)(5)(5)------(3)(3)(3)-3-----(5)(5)(5)(5)--|
[ Tab from: http://www.guitaretab.com/s/soda-stereo/17783.html ]
Y pienso evitar         un roce secretoooooo
e-----------------3-2-2----------------------3-2-2-0-0-0-0---|
B-----------------3-3-3----------------------3-3-3-2-2-2-2---|
G-----------------0-2-2----------------------0-2-2-2-2-2-2---|
D-----------------0-0-0----------------------0-0-0-2-2-2-2---|
A-(2)(2)----------2-----------------(2)(2)---2-----0-0-0-0---|
E-------(3)(3)(3)-3-----(5)(5)(5)(5)------(3)3-----0-0-0-0---|

  Yo quiero amoooor   de musica
e-2-2--3-3-3-3----2-2--0-0-0-0---|
B-2-2--3-3-3-3----3-3--2-2-2-2---|
G-4-4--0-0-0-0----2-2--2-2-2-2---|
D-4-4--0-0-0-0----0-0--2-2-2-2---|
A-2-2--2-2-2-2---------0-0-0-0---|
E-2-2--3-3-3-3---------0-0-0-0---|

  ligeraaaa
e-2-2--3-3-3-3----2-2--0-0-0-0---|
B-2-2--3-3-3-3----3-3--2-2-2-2---|
G-4-4--0-0-0-0----2-2--2-2-2-2---|
D-4-4--0-0-0-0----0-0--2-2-2-2---|
A-2-2--2-2-2-2---------0-0-0-0---|
E-2-2--3-3-3-3---------0-0-0-0---|

  Nada nos libra       nada mas
e-2-2--3-3-3-3----2-2--0-0-0-0---|
B-2-2--3-3-3-3----3-3--2-2-2-2---|
G-4-4--0-0-0-0----2-2--2-2-2-2---|
D-4-4--0-0-0-0----0-0--2-2-2-2---|
A-2-2--2-2-2-2---------0-0-0-0---|
E-2-2--3-3-3-3---------0-0-0-0---|

  quedaaaaa
e-2-2--3-3-3-3----2-2--0-0-0-0---|
B-2-2--3-3-3-3----3-3--2-2-2-2---|
G-4-4--0-0-0-0----2-2--2-2-2-2---|
D-4-4--0-0-0-0----0-0--2-2-2-2---|
A-2-2--2-2-2-2---------0-0-0-0---|
E-2-2--3-3-3-3---------0-0-0-0---|

Solo de guitarra 1
e-7-5-7-5-7-5-7-5-7-5/2-2-0-2-5p2p0-2-5-7-7/12-10-9-10-12-10-9---9--------|
B--------------------------------------------------------------12-12-10---|
G-------------------------------------------------------------------------|
D-------------------------------------------------------------------------|
A-------------------------------------------------------------------------|
E-------------------------------------------------------------------------|

e-----------------------------------------------------------------|
B-10h12p10-9-10-10h12p10-10-10h12p10-12h14p12-14h15p14-15h17p15---|
G-----------------------------------------------------------------|
D-----------------------------------------------------------------|
A-----------------------------------------------------------------|
E-----------------------------------------------------------------|

e-14-12-14-12-14-15-14-12-12-14-15-14-12----------12-----------|
B----------------------------------------15-14-15----15-14/7---|
G--------------------------------------------------------------|
D--------------------------------------------------------------|
A--------------------------------------------------------------|
E--------------------------------------------------------------|

e-----------------------------------------------------------------------|
B-7-7-7h10p7-7-12p10-7-7h10p7-7--7-7h107-7-10h12p10-12h14p12-14h15p14---|
G------------------------------9----------------------------------------|
D-----------------------------------------------------------------------|
A-----------------------------------------------------------------------|
E-----------------------------------------------------------------------|

e------------|
B-15h17p15---|
G------------|
D------------|
A------------|
E------------|

  Yo quiero amoooor   de musica
e-2-2--3-3-3-3----2-2--0-0-0-0---|
B-2-2--3-3-3-3----3-3--2-2-2-2---|
G-4-4--0-0-0-0----2-2--2-2-2-2---|
D-4-4--0-0-0-0----0-0--2-2-2-2---|
A-2-2--2-2-2-2---------0-0-0-0---|
E-2-2--3-3-3-3---------0-0-0-0---|

  ligeraaaa
e-2-2--3-3-3-3----2-2--0-0-0-0---|
B-2-2--3-3-3-3----3-3--2-2-2-2---|
G-4-4--0-0-0-0----2-2--2-2-2-2---|
D-4-4--0-0-0-0----0-0--2-2-2-2---|
A-2-2--2-2-2-2---------0-0-0-0---|
E-2-2--3-3-3-3---------0-0-0-0---|

  Nada nos libra       nada mas
e-2-2--3-3-3-3----2-2--0-0-0-0---|
B-2-2--3-3-3-3----3-3--2-2-2-2---|
G-4-4--0-0-0-0----2-2--2-2-2-2---|
D-4-4--0-0-0-0----0-0--2-2-2-2---|
A-2-2--2-2-2-2---------0-0-0-0---|
E-2-2--3-3-3-3---------0-0-0-0---|

  quedaaaaa
e-2-2--3-3-3-3----2-2--0-0-0-0---|
B-2-2--3-3-3-3----3-3--2-2-2-2---|
G-4-4--0-0-0-0----2-2--2-2-2-2---|
D-4-4--0-0-0-0----0-0--2-2-2-2---|
A-2-2--2-2-2-2---------0-0-0-0---|
E-2-2--3-3-3-3---------0-0-0-0---|

Solo de guitarra 2
e-5-5-5-5-5-5-5-5-5-----------5-5-5-5-5-5-5-5-5--5--5--5--5--|
B-7-7-7-7-7-7-7-7-7-8-6-5-3-1-7-7-7-7-7-7-7-7-7--7--7--7--7--|
G-7-7-7-7-7-7-7-7-7-----------7-7-7-7-7-7-7-7-7--7--7--7--7--|
D-7-7-7-7-7-7-7-7-7-----------7-7-7-7-7-7-7-7-7--7--7--7--7--|
A------------------------------------------------------------|
E------------------------------------------------------------|

Hey! Nada más
  quedaaaa             Nada más
e-2-2--3-3-3-3----2-2--0-0-0-0---|
B-2-2--3-3-3-3----3-3--2-2-2-2---|
G-4-4--0-0-0-0----2-2--2-2-2-2---|
D-4-4--0-0-0-0----0-0--2-2-2-2---|
A-2-2--2-2-2-2---------0-0-0-0---|
E-2-2--3-3-3-3---------0-0-0-0---|

  quedaaaa             Nada más
e-2-2--3-3-3-3----2-2--0-0-0-0---|
B-2-2--3-3-3-3----3-3--2-2-2-2---|
G-4-4--0-0-0-0----2-2--2-2-2-2---|
D-4-4--0-0-0-0----0-0--2-2-2-2---|
A-2-2--2-2-2-2---------0-0-0-0---|
E-2-2--3-3-3-3---------0-0-0-0---|

  quedaaaa             Nada más
e-2-2--3-3-3-3----2-2--0-0-0-0---|
B-2-2--3-3-3-3----3-3--2-2-2-2---|
G-4-4--0-0-0-0----2-2--2-2-2-2---|
D-4-4--0-0-0-0----0-0--2-2-2-2---|
A-2-2--2-2-2-2---------0-0-0-0---|
E-2-2--3-3-3-3---------0-0-0-0---|

  quedaaaa
e-2-2--3-3-3-3----2-2--0-0-0-0---|
B-2-2--3-3-3-3----3-3--2-2-2-2---|
G-4-4--0-0-0-0----2-2--2-2-2-2---|
D-4-4--0-0-0-0----0-0--2-2-2-2---|
A-2-2--2-2-2-2---------0-0-0-0---|
E-2-2--3-3-3-3---------0-0-0-0---|

GRACIAS TOTALES
Related for De Musica Ligera tab
De Musica Ligera chords by Soda Stereo