Soda Stereo - Signos chords

Highlighted       Show chord diagrams
-----------------------------------------------------------------------------
			     SIGNOS (Ultimo Concierto) - Soda Stereo
-----------------------------------------------------------------------------
Tabbed by: smtorres
Email: guichoprogamer@yahoo.com

Tuning: Standard

Intro:
Am Em G6 F6
Am Em Gm6 F6

Verso:
Am            Em
   No hay un modo
G6          F6
    no hay un  punto exacto
Am       Em
  te doy todo
Gm6          F6
    y siempre guardo algo

Am D  Am D C

Am           Em
Si estas oculta
G6           F6
como sabre quien eres
Am           Em
me amas a oscuras
Gm6          F6
duermes envuelta en redes

Coro:
Am     D
    Signos
Am                D  C
    Mi parte insegura
Am          D
    Bajo una luna hostil
Am                D  C
Signos

Preparacion:
Fsus2

Am  Em
G6  F6

Am        Em
Mar de fondo
G6        F6
no caere en la trampa
Am        Em
llamame pronto
Gm6      F6
acertijos bajo el agua

A D  Am D C

Am         Em
Si algo cedes
G6       F6
calmare tu histeria
Am         Em
con los dientes
Gm6         F6
rasgare tus medias

Am   D
   Signos
Am               D  C
   Mi parte insegura
Am         D
   bajo una luna hostil
Am               D  C
Signos

Am   D
   Signos
Am               D  C
Uniendo fisuras
Am          D
Figuras sin definir
Em               D  C
Signos

Preparacion:
Fsus2       Fmaj

Am  D
Am               D  C
Am  D
Em               D  C  2x

Preparacion:
G7 - G7 (Alt)

Final:
Am    Bm    C    Bm
Am    Bm    C    Bm


Acordes (tab)

Intro/Verso:

   Am Em G6 Gm6 F6
e:-0--0--0--0---0-|
B:-1--5--3--8---3-|
G:-2--4--4--7---2-|
D:-2--5--5--8---3-|
A:----------------|
E:----------------|


Coro:

   Am D  Am D  C
e:-5--5--5--5--3--|
B:-5--7--5--7--5--|
G:-5--7--5--7--5--|
D:-7--7--7--7--5--|
A:-7--5--7--5--3--|
E:-5--5--5--5--3--|


Preparacion

   Fsus2  Fmaj  G7  G7 (Alt)
e:-3------0-----x---1-------|
B:-1------1-----3---3-------|
G:-0------2-----0---0-------|
D:-3------3-----3---3-------|
A:-0------3-----2-----------|
E:-x------------3-----------|

Final:

   Am Bm  C    Bm
e:-5--7---8----7--|
B:-5--7---8----7--|
G:-5--7---9----7--|
D:-7--9---10---9--|
A:-7--9---10---9--|
E:-5--7---8----7--|
Tap to rate this tab
 
# A B C D E F G H I J K L M N O P Q R S T U V W X Y Z