Song name
# A B C D E F G H I J K L M N O P Q R S T U V W X Y Z

Soda Stereo - Estoy Azulado tab

Help us improve GuitareTab! Take a short survey!
Banda: Soda Stereo
Cancion: Estoy Azulado
Transcrito por: Carlos Ramirez
Afinacion: EADGBe


INTRO:
e|--------------------0---13-13-13-15---------|
B|--------1-----0---3-----13-13-13-15---------|
G|------0-----0---2---------------------------|  (2)
D|---3------3---------------------------------|
A|--------------------------------------------|
E|--------------------------------------------|

e|-----------------------------13-13-13-12----|
B|-------13------12-------12---13-13-13-13----|
G|----12-------12------15---------------------|
D|--15------15------14------------------------|
A|--------------------------------------------|
E|--------------------------------------------|

e|-----------------------------13-13-13-12----|
B|-------13------12-------12---13-13-13-13----|
G|----12-------12------15---------------------|
D|--15------15------14------------------------|
A|--------------------------------------------|
E|--------------------------------------------|

VERSO:
e|------------------------------------------------------|
B|------------------------------------------------------|
G|------0-----------0-----------0---------0-------------|
D|----3---3-------2---2-------0---0-----2---2-----------|
A|--5-------5--3--------3--2-------2--3-------3---------|
E|------------------------------------------------------|
   sola                                vino a
    signos oh                           sin

e|------------------------------------------------------------------------|
B|------------------------------------------------------------------------|
G|-------0------------5--------------7---------------5--------------------|
D|----3----3--------7---7---------9-----9---------7----7------------------|
A|--5---------5---8-------8---10----------10----8--------8----------------|
E|------------------------------------------------------------------------|
      mi ficcion
      traduccion

e|------------------------------------------------------|
B|------------------------------------------------------|
G|------0-----------0-----------0---------0-------------|
D|----3---3-------2---2-------0---0-----2---2-----------|
A|--5-------5--3--------3--2--------2--3------3---------|
E|------------------------------------------------------|
    sin dudar                            a acom-
    silencio                              insu-


e|--------------------------------------------------|---------------|
B|--------------------------------------------------|---------------|
G|-------0------------5--------------7--------------|----5----------|
D|----3----3--------7---7---------9-----9-----------|-7----7--------|
A|--5---------5---8-------8---10----------10----8---|--------8------|
E|--------------------------------------------------|---------------|
   -panarme
   -perable

e|--7----------10-----------9--9---9--------------------10----------------|
B|--6----------6------------10-10--10-------------------10----------------|
G|--7----------7------------11-11--9--------------------12----------------|
D|--9----------9------------11-11--11-------------------10----------------|
A|--7----------7----------------------------------------------------------|
E|------------------------------------------------------------------------|
      cuanto habre cambiado            que se habra gastado


e|--------7--------7---10-------9---9---9---------------------------------|
B|--------8--------6---6--------10--10--10--------------------------------|
G|--------7--------7---7--------11--11--11--------------------------------|
D|--------9--------9---9--------11--11--11--------------------------------|
A|-----------------7---7--------------------------------------------------|
E|------------------------------------------------------------------------|
     podria recuperarme    pero siento tanto


la erosion...(intro 1ra. parte)


       verso, coro,intro

(I)
e|--7--------8----------7------------8------------------------------------|
B|--7--------8----------7------------8------------------------------------|
G|--7--------9----------7------------9------------------------------------|
D|--9-------10----------9-----------10------------------------------------|
A|--9-------10----------9-----------10------------------------------------|
E|--7--------8----------7------------8------------------------------------|
   algo   esta ligandome   cuando estoy azulado

e|--7--------------8--|--7------------10-10-10-10-10-10-10-10-10-10--------|
B|--7--------------8--|--7-------------------------------------------------|
G|--7--------------9--|--7-------------7--7--7--7--7--7--7--7--7--7--------|
D|--9-------------10--|--9-------------------------------------------------|
A|--9-------------10--|--9-------------------------------------------------|
E|--7--------------8--|--7-------------------------------------------------|
    quiero recuperarme      azulado

ACORDES DEL SAXO:
e|---5---3-------|
B|---6---6-------|
G|---5---4-------| (6)
D|---7---3-------|
A|---5---5-------|
E|-------3-------|


e|--7----------10-----------9--9---9--------------------10-10-10----------|
B|--6----------6------------10-10--10-------------------10-10-10----------|
G|--7----------7------------11-11--9--------------------12-12-12----------|
D|--9----------9------------11-11--11-------------------10-10-12----------|
A|--7----------7----------------------------------------------------------|
E|------------------------------------------------------------------------|
    a -      -zula-        -do                 cambiaria
            a tu la-      -do                  oh oh

e|-------10--10--10-------|
B|-------10--10--10-------|
G|-------12--12--12-------| (2)
D|-------10--10--10-------|
A|------------------------|
E|------------------------|
  de color

  (I)1ra. parte


FINAL:
e|---------------------------------------------------------------------|
B|-----------------1-----0---------1-----0----1----0----1-----0--------|
G|---------------0-----0---------0-----0-----0----0----0-----0---------|
D|-------------3-----3---------3-----3-----3----3----3----3------------|
A|---------------------------------------------------------------------|
E|---------------------------------------------------------------------|
   estoy azulado          azulado                         estoy...


e|--------------------------------------------|
B|-------13------12-------12------12----------|
G|----12-------12------15------12-------------|
D|--15------15------14-------15---------------|
A|--------------------------------------------|
E|--------------------------------------------|


e|-----------------------------13-13-13-12----|
B|-------13------12-------12---13-13-13-13----|
G|----12-------12------15---------------------|
D|--15------15------14------------------------|
A|--------------------------------------------|
E|--------------------------------------------|
Related for Estoy Azulado tab