Song name
# A B C D E F G H I J K L M N O P Q R S T U V W X Y Z

Soda Stereo - Angel Electrico tab

Intro:

e-----3--------5--------4--------8p7----|
B---2---2----6---6----5---5----8-----8--|
G-3--------5--------4--------7----------|
D---------------------------------------|
A---------------------------------------|
E---------------------------------------|X3

e-----3--------5--------4--------3-----|
B---2---2----6---6----5---5----4---4---|
G-3--------5--------4--------3---------|
D--------------------------------------|
A--------------------------------------|
E--------------------------------------|

e------------------------|
B------------------------|
G----/7v--/--------------|
D------------------------|
A------------------------|
E------------------------|

e----------------------------------------------------------------------|
B--------8vv-8--------8vv--------8v-6-8b9r8v-6-8b9r8-6-8vv-6-8b9r8-6-8-|
G--5h7-5---------5h7-5------5h7-5--------------------------------------|
D----------------------------------------------------------------------|
A----------------------------------------------------------------------|
E----------------------------------------------------------------------|

e----------------------------------------------------8------8-------------|
B--------8vv---8-------8vv----------8v-6-8b9r8p6-8b10---8b10---10r8-6-----|
G--5h7-5---------5h7-5-----7-5h7-5------------------------------------7vv-|
D-------------------------------------------------------------------------|
A-------------------------------------------------------------------------|
E-------------------------------------------------------------------------|

Verso 1:
Dm          Em
 Ahí va la tempestad
F                 G
 ya parece un paisaje habitual
Dm               Em
 un árbol color sodio
                G
 la caída de un ángel eléctrico

e---------------------------------------------------8--------8------------|
B--------8vv-8--8-------8vv--------8v-6-8b9r8p6-8b10--8-8b10---8b10-8-6-6-|
G--5h7-5----------5h7-5------5h7-5----------------------------------------|
D-------------------------------------------------------------------------|
A-------------------------------------------------------------------------|
E-------------------------------------------------------------------------|

Verso 2:
Dm          Em
 No tengo estática
F                   G
 y no querría lastimarte de nuevo
Dm                Em
 volví solo y cansado
F                     G
 por la caída de otro ángel eléctrico


Solo:
e-------------------------------------------------------------------------|
B---------------------------------------------------------------------15v-|
G------9h10-9-10-9-------------9-10-12v------14-13-12v------14-13-12------|
D-12---------------10------/12------------12-------------12---------------|
A-12------------------12v-------------------------------------------------|
E-10----------------------------------------------------------------------|

e-------13-15b17r15-13----------------------------------------------|
B-13-15----------------15-b--13-15-------9h10p9----9----------------|
G----------------------------------14v---------10---10p9----9-------|
D---------------------------------------------------------10---10-9-|
A-------------------------------------------------------------------|
E-------------------------------------------------------------------|

e--------------------------------------------13----|
B-----------------------------------------13----13-|
G-------------10h12-12b14r12-10----10—12b----------|
D-------10h12-------------------12-----------------|
A-10h12--------------------------------------------|
E--------------------------------------------------|

e-----------------------------|
B-----13----13----13----------|
G-r12----12----12----10-12-10-|
D-----------------------------|
A-----------------------------|
E-----------------------------|

Verso 3:
Dm           Em
 Enredado en cables
F                    G
 estoy al filo de la resignación
Dm            Em
 debe ser el hábito
F                       G
 de esperar que algo quiebre el unísono

Verso 4:
Lam       D
 Un nuevo acorde
           Lam           D
 te hace mirarme a los ojos
Lam            D
 aun tengo al sol
         Lam    D
 para besar tu sombra

Verso 5:
G      F
 Hoy caí
       G        F
al dejarte sola
G       F
 ya pagué
         G
por quebrar la calma

e----------------------------------------------------------------|
B-----------------8-------8-------8-6-8b9r8-6-8b9r8-6-8--6-8b9r8-|
G-7vv-------5h7-5---5h7-5---5h7-5--------------------------------|
D----------------------------------------------------------------|
A----------------------------------------------------------------|
E------/---------------------------------------------------------|

e---------------------------------------------------8--------8------------|
B--------8vv-8--8-------8vv--------8v-6-8b9r8p6-8b10--8-8b10---8b10-8-6-6-|
G--5h7-5----------5h7-5------5h7-5----------------------------------------|
D-------------------------------------------------------------------------|
A-------------------------------------------------------------------------|
E-------------------------------------------------------------------------|
Tap to rate this tab
# A B C D E F G H I J K L M N O P Q R S T U V W X Y Z