Song name
# A B C D E F G H I J K L M N O P Q R S T U V W X Y Z

Sodom - Bullet In The Head tab

Song: Sodom - Bullet in the Head
Album: Tapping the Vein
Tabbed by: Sean "AUSGEBOMBT" Stinson

Another easy as shit yet badass song by the TECHNICAL WIZARDS that are Sodom. Basically just picking of 
chords, I'm not going to write out all of the fucking specifics, because the patterns change every now and then.

Tuning: As far as I can hear, standard.

Intro:
|------------------|
|------------------|
|-----5-----3------|
|--2--5--5--3-3----|
|--2--3--5--1-3----|
|--0-----3----1----|


Verse: All muted.
|------------------------------------|-3---|
|--------33333333----------1111------|-1-3-|
|0000000----------33333333------1111-|---1-|
                           1|         2|

Bridge:
|-2------5-7-----2---------|
|-2------5-7-----2-----2-4-|
|-0------3-5-----0-----3-5-|
Then pick that out real fast.

Chorus:
|------------------------|
|------------------------|
|-----5-----------3------|
|--2--5--5--------3-3----|
|--2--3--5--------1-3----|
|--0-----3-333333---1----|
           ......

Solo backing:
|-----------------|
|-----------------|
|--9----7---------|
|--9-9--7--5-6-7--|
|--7-9--5--5-6-7--|
|----7-----3-4-5--|

I don't have my whammy so I won't worry about the solo, it's just mindless wanking anyway.
Tap to rate this tab
# A B C D E F G H I J K L M N O P Q R S T U V W X Y Z