Guitaretab - guitar tabs
Song name
# A B C D E F G H I J K L M N O P Q R S T U V W X Y Z

Sonicflood - You Are tab

-------------------------------------------------------------------------------
                         YOU ARE  Sonicflood
-------------------------------------------------------------------------------
Tabbed By: 0GibsonLesPaul0
Email: -----

Tuning: Standard
_______________________________________________________________________________
INTRO

 N.C.
e|----------------------------------------|
B|-----------------------------5---5------|
G|-2/6---6-7-6-2---2/6---6-7-6--------6---|
D|----------------------------------------|
A|----------------------------------------|
E|----------------------------------------|
 |
 |
 |
 | A5           G5 A5
e|----------------------------------------|
B|----------------------------------------|
G|-2-------------------2------------------|
D|-2-------------5-7---2------------------|
A|-0-------------5-7---0------------------|
E|---------------3/5----------------------|


VERSE

 N.C.
e|-14---17-16--------------14---17-16-----------------14-------16-15------|
B|------------17-14---17--------------17----------17-----------------12---|
G|----------------------------------------14h16-----------16--------------|
D|------------------------------------------------------------------------|
A|------------------------------------------------------------------------|
E|------------------------------------------------------------------------|


BRIDGE

 N.C.
e|-----------------------------|
B|------------------------12---|
G|-14------13------14----------|
D|-----------------------------|
A|-----------------------------|
E|-----------------------------|
 |
 |
 |   This part was hard to hear, but I got this:   -(clean)
 | N.C.
e|----------------------------|
B|----------------------------|
G|-4-5-7----4/7---4-5-7/4~----|
D|----------------------------|
A|----------------------------|
E|----------------------------|


CHORUS

  A5  D5     E5    G5  A5     D5    E5 E5 G5             A5
e|-------------------------------------------------------------|
B|-----3-----------------------3-------5-----------------------|
G|-2---2------4---------2------2----4-4-----------------------|
D|-2---0------4----5----2------0----4-2--5-5-5-5-5-5-5-5/7----|
A|-0----------2----5----0-----------2-----5-5-5-5-5-5-5-5/7----|
E|-----------------3----------------------3-3-3-3-3-3-3-3/5----|
 |
 |
 |   This part was also hard to hear, I got this:
 | N.C.
e|----------------------------------/12------------------------|
B|-------------------------------------------------------------|
G|-----7-6-2-------------7-6-4---------------------------------|
D|-------------------------------------------------------------|
A|-------------------------------------------------------------|
E|-------------------------------------------------------------|


VERSE
[ Tab from: http://www.guitaretab.com/s/sonicflood/179899.html ]
 N.C.
e|-14---17-16--------------14---17-16-----------------14-------16-15------|
B|------------17-14---17--------------17----------17-----------------12---|
G|----------------------------------------14h16-----------16--------------|
D|------------------------------------------------------------------------|
A|------------------------------------------------------------------------|
E|------------------------------------------------------------------------|
 |
 |
 |
 |             A    D  G   A    D   D      G     G   G
e|-------------0----2---3---0---2---2-------3-----3---3-------------------|
B|-------------2----3----3-2---3---3--------3---3---3------------------|
G|-------------2----2-----0-2---2---2---------0---0------0----------------|
D|------------------------------------------------0-----------------------|
A|------------------------------------------------2-----------------------|
E|------------------------------------------------3-----------------------|


N.C.
e|-----------------------------|
B|------------------------12---|
G|-14------13------14----------|
D|-----------------------------|
A|-----------------------------|
E|-----------------------------|
 |
 |
 |   This part was hard to hear, but I got this:   -(clean)
 | N.C.
e|----------------------------|
B|----------------------------|
G|-4-5-7----4/7---4-5-7/4~----|
D|----------------------------|
A|----------------------------|
E|----------------------------|


CHORUS

  A5  D5     E5    G5  A5     D5    E5 E5 G5             A5
e|-------------------------------------------------------------|
B|-----3-----------------------3-------5-----------------------|
G|-2---2------4---------2------2----4-4-----------------------|
D|-2---0------4----5----2------0----4-2--5-5-5-5-5-5-5-5/7----|
A|-0----------2----5----0-----------2-----5-5-5-5-5-5-5-5/7----|
E|-----------------3----------------------3-3-3-3-3-3-3-3/5----|


INTERLUDE

e|-12-12h13p12---------|
B|--------------15-14--|
G|---------------------|
D|---------------------|
A|---------------------|
E|---------------------|

PRE CHORUS  key change

 N.C.
e|-----------------------------------------|
B|-----------------------------------------|
G|------------------------6-6b8r6-6b8r6-4~-|
D|-----------------------------------------|
A|-4-6-9---4-6-2--4-6-9-------------------|
E|-----------------------------------------|
 |
 |
 |
 | B5      E5      D#5  A5
e|----------------------------------------|
B|----------5-----------------------------|
G|--4-------4-------6---------------------|
D|--4-------2-------6----7----------------|
A|--2---------------4----7----------------|
E|-----------------------5----------------|


CHORUS | 2X

e|-----------------------------------------------------------------------------|
B|-------5------------------------5----------7---------------------------------|
G|--4----4------6-----------------4-----6----6---------2-2-2-2-2-2-2-2---------|
D|--4----2------6-------7---------2-----6----4---------2-2-2-2-2-2-2-2---------|
A|--2-----------4-------7----2----------4--------------0-0-0-0-0-0-0-0---------|
E|----------------------5------------------------------------------------------|
 |
 |
 |
 |
e|-/--12-11-79~-------12-11-14~----12-11-7---9\14-17----17----17----17-----|
A|-------------------------------------------------------17----17----17----17--|
B|-----------------------------------------------------------------------------|
G|-----------------------------------------------------------------------------|
D|-----------------------------------------------------------------------------|
A|-----------------------------------------------------------------------------|
E|-----------------------------------------------------------------------------|


OUTRO | keep repeating, fade out

e|------------------------------------------------------------------------|
B|------5-----------------------------5-----------------------------------|
G|--4---4-----6-----------4-----------4------------6----------------------|
D|--4---2-----6------7---4------------2------------6----------------7-----|
A|--2---------4------7---2-------------------------4----------------7-----|
E|-------------------5----------------------------------------------5-----|
 |
 |
 |
 |
e|---------22b24-----------22b24-22b24-22b24-22b26r24r2------------------|
B|---14~-----------------------------------------------------------------|
G|-----------------------------------------------------------------------|
D|-----------------------------------------------------------------------|
A|-----------------------------------------------------------------------|
E|-----------------------------------------------------------------------|
Related for You Are tab