Song name
# A B C D E F G H I J K L M N O P Q R S T U V W X Y Z

Spin Doctors - What Time Is It tab

e|775---------775-------775---------775----4444-s-7777-----------|
B|555--7-5-7--555--5-7--555--7-5-7--555----4444-s-7777-----------|
G|555--7-5-7--555--5-7--555--7-5-7--555----4444-s-7777-----------|
D|555--7-5-7--555--5-7--555--7-5-7--555----4444-s-7777-----------|
A|---------------------------------------------------------------|
E|---------------------------------------------------------------|
                     

Chorus
   C    D    G    A   
e|-----------3----5--------------------------|
B|-5----7----3----5--------------------------|
G|-5----7----4----6--------------------------|
D|-5----7----5----7--------------------------|
A|-3----5----5----7--------------------------|
E|-----------3----5--------------------------|
      
Thats just about it! Please Rate It!
Tap to rate this tab
# A B C D E F G H I J K L M N O P Q R S T U V W X Y Z