Guitaretab - guitar tabs
Song name
# A B C D E F G H I J K L M N O P Q R S T U V W X Y Z
Home / S / Spoken / David tab

Spoken - David tab

Artist: Spoken
Title: David
Album: Echoes of the Spirit Still Dwell
Transcribed by: Luke Starr

drop d tuning

( )= palm mute

main progression
e ------------------
b ------------------
g ------------------
d ---6666-6/7-------
a ---6666-6/7-------
d ---6666-6/7-------

[ Tab from: ]
e -----------------------------------------
b -----------------------------------------
g -----------------------------------------
d ---(6-6-6)----6----(6-6-6)----6--7-------
a ---(6-6-6)---------(6-6-6)---------------
d ---(6-6-6)---------(6-6-6)---------------

There is a riff that I cant figure out that starts
at 2:46 and goes to like 3:35 in the song. But other
than that, the above 2 riffs are just repeated and
make up petty much the whole song. Feel free to email
me corrections...
Related for David tab