Song name
# A B C D E F G H I J K L M N O P Q R S T U V W X Y Z

Spunge - Centrefold tab

Standard tuning

INTRO


gtr 1

E---10---------------------------------|
B-12--12-10------------------10-----10-|
G----------12-12-9-12-12-9-12--12-12---|   repeat
D--------------------------------------|
A--------------------------------------|
E--------------------------------------|


gtr 2

E--------------------------|
B--------------------------|
G----------55555-33--------|
D-55555-33-55555-33--------|
A-55555-33-33333-33--------|       repeat
E-33333-11-------11--------|
    ppp      ppp

Verse


gtr 1

E-----------------|
B-----------------|
G---------5-5-----|
D-5-5-3-3-5-5-3-3-|    repeate (Ska upstrokes)
A-5-5-3-3-3-3-3-3-|
E-3-3-1-1-----1-1-|


gtr 2

E----------------|
B----------------|
G---------55-----|
D-55--33--55--33-|    repeate (its like chours but without the Pm)
A-55--33--33--33-|
E-33--11------11-|

Bridge

gtr 1+2

E-----------------|
B-----------------|
G---------22225-7-|
D-2222222222225-7 repeate
A-2222222200003-5
E-00000000-------

Chours

gtr 1+2


E--------------------------|
B--------------------------|
G----------55555-33--------|
D-55555-33-55555-33--------|
A-55555-33-33333-33--------|       repeat
E-33333-11-------11--------|
    ppp      ppp
Tap to rate this tab
# A B C D E F G H I J K L M N O P Q R S T U V W X Y Z