Song name
# A B C D E F G H I J K L M N O P Q R S T U V W X Y Z

Spunge - Land Down Under tab

i liked this version of the song i thought id have a go at tabbing it. its missing the 
but i'm working on it.

intro

G1
B|------------------|--------------|------------------------------------|
G|-11---------------|--11----------|--11-11-11-11-12--1212-11------11---|
D|----12-11h12p11h12|-----12-11-12-|----------------------------12----12|
A|------------------|--------------|------------------------------------|
E|------------------|--------------|------------------------------------|

G2 intro/verse (cant be bothered to tab the strumming pattern but its not to difficult.)
   Bm     A     Bm      G A
e|--2------------2------3-----|
B|--3-----2------3------3-2---|
G|--4-----2------4------0-2---|
D|--4-----2------4------0-2---|
A|--2-----0------2------2-0---|
E|----------------------3-----|


G1+G2 Chorus

e|---------------------------|
B|---------------------------|
G|---7-----------------------|
D|---7----7----9----3--7-----|
A|---5----7----9----3--7-----|
E|--------5----7----5--5-----|


repeat intro

repeat verse

repeat chorus

solo (G2 repeats verse again)


STILL WORKING ON IT...


after the solo the verse starts to fade in again before going into the chorus, which is 
to the end.

this is my first try at tabbing a song. so any corrections welcome. and if anyone has 
of the solo please
let me know.

by 10crumsey
Tap to rate this tab
 
# A B C D E F G H I J K L M N O P Q R S T U V W X Y Z