Song name
# A B C D E F G H I J K L M N O P Q R S T U V W X Y Z

Spunge - Ghostbusters tab

Song - Ghostbusters
Artist - [SPUNGE]
Tabbed by - Jason Phillips
(08 March 2006)

I'm sure you can work out the timeing by listening to the song.

INTRO
GTR1 Distorton
E------------------------------------------|
B------------------------------------------|
G------------------------------------------| X1
D------------------------------------------|
A--14~-10~-9~-8~-7~-5~---------------------|
E----------------------6~------------------|
GTR2 distortion
E------------------------------------------|
B------------------------------------------|
G------------------------------------------| X1
D----------------------88888888-88888888---|
A----------------------88888888-88888888---|
E----------------------66666666-66666666---|

then

GTR1 Distortion                              
E--77-xxxx-5-xx-4--------------------------| \
B--77-xxxx-5-xx-5--------------------------|  \
G--88-xxxx-6-xx-4--------------------------|   \
D--99-xxxx-7-xx-6--------------------------|    \
A------------------------------------------|     \
E------------------------------------------|     |
                                                 |-\
E--7-7-xxxx-55-4---------------------------|     |  \
B--7-7-xxxx-55-5---------------------------|     /   |
G--8-8-xxxx-66-4---------------------------|    /    |
D--9-9-xxxx-77-6---------------------------|   /     |
A------------------------------------------|  /      |
E------------------------------------------| /       |
                                                     |X4
GTR2- Distortion                                     |
E------------------------------------------| \       |
B------------------------------------------|  \      |
G-44---------------------------------------|   \     |
D-44------7-6------------------------------|    \    |
A-22------7-6------------------------------|     \   |
E---0h2h4-5-4------------------------------|     |  /
                                                 |-/
E------------------------------------------|     |
B------------------------------------------|     /
G-44---------------------------------------|    /
D-44------77-6-----------------------------|   /
A-22------77-6-----------------------------|  /
E---0h2h4-55-4-----------------------------| /


VERSE
GTR1 Clean
E--77-xxxx-5-xx-4--------------------------| \
B--77-xxxx-5-xx-5--------------------------|  \
G--88-xxxx-6-xx-4--------------------------|   \
D--99-xxxx-7-xx-6--------------------------|    \
A------------------------------------------|     \
E------------------------------------------|     |
                                                 |x4
E--7-7-xxxx-55-4---------------------------|     |
B--7-7-xxxx-55-5---------------------------|     /
G--8-8-xxxx-66-4---------------------------|    /
D--9-9-xxxx-77-6---------------------------|   /
A------------------------------------------|  /
E------------------------------------------| /

CHORUS
GTR1
E------------------------------------------|
B------------------------------------------|
G-7-7-7-7-7--------------------------------| X2
D--9-9-9-9-77h8h9--------------------------|
A------------------------------------------|
E------------------------------------------|

E------------------------------------------|
B------------------------------------------|
G-11--11--11--11--11-----------------------| X2
D---12--12--12--12--11h12h13---------------|
A------------------------------------------|
E------------------------------------------|

GTR2
E------------------------------------------|
B------------------------------------------|
G------------------------------------------|
D-9----7----5----2-------------------------|
A-9----7----5----2-------------------------|
E-7----5----3----0-------------------------|

then

GTR1 Distortion                              
E--77-xxxx-5-xx-4--------------------------| \
B--77-xxxx-5-xx-5--------------------------|  \
G--88-xxxx-6-xx-4--------------------------|   \
D--99-xxxx-7-xx-6--------------------------|    \
A------------------------------------------|     \
E------------------------------------------|     |
                                                 |-\
E--7-7-xxxx-55-4---------------------------|     |  \
B--7-7-xxxx-55-5---------------------------|     /   |
G--8-8-xxxx-66-4---------------------------|    /    |
D--9-9-xxxx-77-6---------------------------|   /     |
A------------------------------------------|  /      |
E------------------------------------------| /       |
                                                     |X2
GTR2- Distortion                                     |
E------------------------------------------| \       |
B------------------------------------------|  \      |
G-44---------------------------------------|   \     |
D-44------7-6------------------------------|    \    |
A-22------7-6------------------------------|     \   |
E---0h2h4-5-4------------------------------|     |  /
                                                 |-/
E------------------------------------------|     |
B------------------------------------------|     /
G-44---------------------------------------|    /
D-44------77-6-----------------------------|   /
A-22------77-6-----------------------------|  /
E---0h2h4-55-4-----------------------------| /

VERSE
GTR1 Clean
E--77-xxxx-5-xx-4--------------------------| \
B--77-xxxx-5-xx-5--------------------------|  \
G--88-xxxx-6-xx-4--------------------------|   \
D--99-xxxx-7-xx-6--------------------------|    \
A------------------------------------------|     \
E------------------------------------------|     |
                                                 |x4
E--7-7-xxxx-55-4---------------------------|     |
B--7-7-xxxx-55-5---------------------------|     /
G--8-8-xxxx-66-4---------------------------|    /
D--9-9-xxxx-77-6---------------------------|   /
A------------------------------------------|  /
E------------------------------------------| /

CHORUS
GTR1
E------------------------------------------|
B------------------------------------------|
G-7-7-7-7-7--------------------------------| X2
D--9-9-9-9-77h8h9--------------------------|
A------------------------------------------|
E------------------------------------------|

E------------------------------------------|
B------------------------------------------|
G-11--11--11--11--11-----------------------| X2
D---12--12--12--12--11h12h13---------------|
A------------------------------------------|
E------------------------------------------|

GTR2
E------------------------------------------|
B------------------------------------------|
G------------------------------------------|
D-9----7----5----2-------------------------|
A-9----7----5----2-------------------------|
E-7----5----3----0-------------------------|

then

GTR1 Distortion
E--77-xxxx-5-xx-4--------------------------| \
B--77-xxxx-5-xx-5--------------------------|  \
G--88-xxxx-6-xx-4--------------------------|   \
D--99-xxxx-7-xx-6--------------------------|    \
A------------------------------------------|     \
E------------------------------------------|     |
                                                 |x2
E--7-7-xxxx-55-4---------------------------|     |
B--7-7-xxxx-55-5---------------------------|     /
G--8-8-xxxx-66-4---------------------------|    /
D--9-9-xxxx-77-6---------------------------|   /
A------------------------------------------|  /
E------------------------------------------| /

then

GTR1 Distortion                              
E--77-xxxx-5-xx-4--------------------------| \
B--77-xxxx-5-xx-5--------------------------|  \
G--88-xxxx-6-xx-4--------------------------|   \
D--99-xxxx-7-xx-6--------------------------|    \
A------------------------------------------|     \
E------------------------------------------|     |
                                                 |-\
E--7-7-xxxx-55-4---------------------------|     |  \
B--7-7-xxxx-55-5---------------------------|     /   |
G--8-8-xxxx-66-4---------------------------|    /    |
D--9-9-xxxx-77-6---------------------------|   /     |
A------------------------------------------|  /      |
E------------------------------------------| /       |
                                                     |X2
GTR2- Distortion                                     |
E------------------------------------------| \       |
B------------------------------------------|  \      |
G-44---------------------------------------|   \     |
D-44------7-6------------------------------|    \    |
A-22------7-6------------------------------|     \   |
E---0h2h4-5-4------------------------------|     |  /
                                                 |-/
E------------------------------------------|     |
B------------------------------------------|     /
G-44---------------------------------------|    /
D-44------77-6-----------------------------|   /
A-22------77-6-----------------------------|  /
E---0h2h4-55-4-----------------------------| /

SOLO HARMONIZED THING.
GTR1 Distortion
E------------------------------------------| \
B-10\9-----10\9/12~------------------------|  \
G-----9~-----------------------------------|   \
D------------------------------------------|    \
A------------------------------------------|     \
E------------------------------------------|      \
                                                  |
GTR2 Distortion                                   |X2
E------------------------------------------|      /
B------------------------------------------|     /
G-7\6-----7\6/9~---------------------------|    /
D----7~------------------------------------|   /
A------------------------------------------|  /
E------------------------------------------| /

OUTRO
GTR1 Distortion                              
E--77-xxxx-5-xx-4--------------------------| \
B--77-xxxx-5-xx-5--------------------------|  \
G--88-xxxx-6-xx-4--------------------------|   \
D--99-xxxx-7-xx-6--------------------------|    \
A------------------------------------------|     \
E------------------------------------------|     |
                                                 |-\
E--7-7-xxxx-55-4---------------------------|     |  \
B--7-7-xxxx-55-5---------------------------|     /   |
G--8-8-xxxx-66-4---------------------------|    /    |
D--9-9-xxxx-77-6---------------------------|   /     |
A------------------------------------------|  /      |
E------------------------------------------| /       |
                                                     |X4
GTR2- Distortion                                     |
E------------------------------------------| \       |
B------------------------------------------|  \      |
G-44---------------------------------------|   \     |
D-44------7-6------------------------------|    \    |
A-22------7-6------------------------------|     \   |
E---0h2h4-5-4------------------------------|     |  /
                                                 |-/
E------------------------------------------|     |
B------------------------------------------|     /
G-44---------------------------------------|    /
D-44------77-6-----------------------------|   /
A-22------77-6-----------------------------|  /
E---0h2h4-55-4-----------------------------| /

then

GTR1 Distortion                              
E------------------------------------------| \
B------------------------------------------|  \
G-444444-999-------------------------------|   \
D-444444-999-777---------------------------|    \
A-222222-777-777---------------------------|     \
E------------555---------------------------|     |
                                                 |X10
GTR2- Distortion                                 |
E------------------------------------------|     |
B------------------------------------------|     /
G-444444-----------------------------------|    /
D-444444-777-666---------------------------|   / A-222222-777-666---------------------------|  /
E--------555-444---------------------------| / 
                                               
THE END                        
Tap to rate this tab
# A B C D E F G H I J K L M N O P Q R S T U V W X Y Z