Song name
# A B C D E F G H I J K L M N O P Q R S T U V W X Y Z

Staind - Please tab

i know this isn't 100% correct but
no one else posted it so i had a go.
post your attempt if u can do better.

tuning: EADABe

e|-----------------------------|
B|-----------------------------|
A|----0--0--0--0----0--0--0--0-|
D|---0--0--0--0----0--0--0--0--|
A|-12--8--7--3---10--8--7--3---|
E|-----------------------------|

e|-----------------------------|
B|-----------------------------|
A|----0--0--0--0----0--0--0--0-|
D|---0--0--0--0----0--0--0--0--|
A|-12--8--7--3---10--7--3--0---|
E|-----------------------------|
Tap to rate this tab
# A B C D E F G H I J K L M N O P Q R S T U V W X Y Z