Song name
# A B C D E F G H I J K L M N O P Q R S T U V W X Y Z

Staind - Nothing Left To Say tab

Staind
Nothing Left To Say
Drop D 1/2 step Down  Db Ab Db Gb Bb Eb
Tabbed By: tntrekabulator@hotmail.com

Rake / Apreggiate-= $^ v arrow shows direction of rake.
P.M.= Palm Mute
h= hammer on
p= pull off
/ and \ =slide up and down

P.M.--|   $^   $v P.M.   $^  $v P.M.    $^  $v
|---------7----7---------7---7----------7---7----------------|
|---------8----8---------8---8----------8---8----------------|
|---------9----9---------9---9----------9---9----------------|
|--9--9---9----9---9-----9---9----9-----9---9----------------|
|------------------------------------------------------------|
|------------------------------------------------------------|
                  sl.                 sl.
|------------------------------------------------------------|
|------------------------------------------------------------|
|--7-7h9p7\5--5-5h7p5\4--------------------------------------|
|--7-7h9p7\5--5-5h7p5\4--------------------------------------|
|------------------------------------------------------------|
|------------------------------------------------------------|
P.M.--| $^  $v P.M. $^   $v  P.M. $^  $v
|------------------------------------------------------------|
|---------7---7----------7---7----------7---7----------------|
|---------7---7----------7---7----------7---7----------------|
|---------5---5----------5---5----------5---5----------------|
|--5--5---5---5----5-----5---5----5-----5---5----------------|
|------------------------------------------------------------|
                  sl.                 sl.
|-----------------------------------------------------------|
|-----------------------------------------------------------|
|--7-7h9p7\5--5-5h7p5\4-------------------------------------|
|--7-7h9p7\5--5-5h7p5\4-------------------------------------|
|-----------------------------------------------------------|
|-----------------------------------------------------------|
Tap to rate this tab
# A B C D E F G H I J K L M N O P Q R S T U V W X Y Z