Song name
# A B C D E F G H I J K L M N O P Q R S T U V W X Y Z

Staind - Just Go tab

This song is in Drop Db, and is a lot of fun to play. Enjoy!

Intro 1
Eb|---------------------------------|---------------------------------|
Bb|---------------------------------|---------------------------------|  
Gb|---------------------------------|---------------------------------|
Db|---------------------------------|---------------------------------|
Ab|--8------5^(5)-------------------|--8------5^(5)-------------------|
Db|----10p0-------0-3h5--5-5p3--3p0-|----10p0-------0-3h5--5-3--------|

  Intro 2                                                     (2 times)
Eb|---------------------------------|---------------------------------|
Bb|---------------------------------|---------------------------------|
Gb|---------------------------------|---------------------------------|
Db|-10------------------------------|-10------------------------------|
Ab|--8------5^(5)---3h5--5-5p3--3p0-|--8------5^(5)---3h5--5-3--------|
Db|----10p0-------0-3h5--5-5p3--3p0-|----10p0-------0-3h5--5-3--------|

  Verse                                 
Eb|---------------------------------------------|
Bb|---------------------------------------------|
Gb|---------------------------------------------|
Db|-10--------10---------10---------10----------|
Ab|--8---------8----------8----------8----------|
Db|----10p0-0-----10p0-0-----10p0-0-----10p0-0--|

                                        (5 times)
Eb|---------------------------------------------|
Bb|---------------------------------------------|
Gb|---------------------------------------------|
Db|-10--------10---------10---------10----------|
Ab|--8---------8----------8----------8----------|
Db|----10p0-0-----10p0-0-----10p0-0-----10p9~~--|

  Chorus                                                      (4 times)
Eb|---------------------------------|---------------------------------|
Bb|---------------------------------|---------------------------------|
Gb|---------------------------------|---------------------------------|
Db|-10------------------------------|-10------------------------------|
Ab|--8------5^(5)---3h5--5-5p3--3p0-|--8------5^(5)---3h5--5-3--------|
Db|----10p0-------0-3h5--5-5p3--3p0-|----10p0-------0-3h5--5-3--------|

  Verse                                 
Eb|---------------------------------------------|
Bb|---------------------------------------------|
Gb|---------------------------------------------|
Db|-10--------10---------10---------10----------|
Ab|--8---------8----------8----------8----------|
Db|----10p0-0-----10p0-0-----10p0-0-----10p0-0--|

                                        (5 times)
Eb|---------------------------------------------|
Bb|---------------------------------------------|
Gb|---------------------------------------------|
Db|-10--------10---------10---------10----------|
Ab|--8---------8----------8----------8----------|
Db|----10p0-0-----10p0-0-----10p0-0-----10p9~~--|

  Chorus                                                      (4 times)
Eb|---------------------------------|---------------------------------|
Bb|---------------------------------|---------------------------------|
Gb|---------------------------------|---------------------------------|
Db|-10------------------------------|-10------------------------------|
Ab|--8------5^(5)---3h5--5-5p3--3p0-|--8------5^(5)---3h5--5-3--------|
Db|----10p0-------0-3h5--5-5p3--3p0-|----10p0-------0-3h5--5-3--------|



   Bridge
Eb|------------------------------------------------------------------------|
Bb|------------------------------------------------------------------------|
Gb|-----9-------10p9---12p9---10-(10)-9------11p9---12p9---10-(10)-9-------|
Db|-------10----------------------------10---------------------------10----|
Ab|--0-------0-------0------0--------------0------0------0--------------0--|
Db|------------------------------------------------------------------------|
                                      (2 1/2 times)
Eb|-----------------------------------------------|
Bb|-----------------------------------------------|
Gb|--10p9---12p9---10-(10)-9------10p9---10-(10)--|
Db|--------------------------10-------------------|
Ab|-------0------0--------------0------0----------|
Db|-----------------------------------------------|

  Bridge 2  (8 times)
Eb|------------------|
Bb|------------------|  
Gb|------------------|
Db|--0-2-0-2-0-1-----|
Ab|--0-2-0-2-0-1-----|
Db|--0-2-0-2-0-1-----|
  P.M. . . . . .

  Chorus                                                      (4 times)
Eb|---------------------------------|---------------------------------|
Bb|---------------------------------|---------------------------------|
Gb|---------------------------------|---------------------------------|
Db|-10------------------------------|-10------------------------------|
Ab|--8------5^(5)---3h5--5-5p3--3p0-|--8------5^(5)---3h5--5-3--------|
Db|----10p0-------0-3h5--5-5p3--3p0-|----10p0-------0-3h5--5-3--------|


  Outro               (8 times)                    (2 times)
Eb|---------------------------|----------------------------|
Bb|---------------------------|----------------------------| 
Gb|----------0-------------0--|---0------0------0------0---|
Db|-10-(10)^-0----10-(10)^-0--|---0------0------0------0---|
Ab|--8--(8)^-0-----8--(8)^-0--|---0------0------0------0---| 
Db|----------0-------------0--|---0------0------0------0---|
Tap to rate this tab
 
# A B C D E F G H I J K L M N O P Q R S T U V W X Y Z