Song name
# A B C D E F G H I J K L M N O P Q R S T U V W X Y Z

Staind - All I Want chords

Highlighted       Show chord diagrams
-------------------------------------------------------------------------------
			     All I Want - Staind
-------------------------------------------------------------------------------
Tabbed by:rokkstar9407
Email:italianmonkey94@yahoo.com

Tuning:Standard

   Db5        Bb5        Ab5        Gb5
e|--------------------------------------------------------------------------|
B|--------------------------------------------------------------------------|
G|--6-----------------------------------------------------------------------|
D|--6----------8----------6----------4--------------------------------------|
A|--4----------8----------6----------4--------------------------------------|
E|-------------6----------4----------2--------------------------------------|

    Db        Bbm        Ab         Gb
e|---4---------1----------4----------2--------------------------------------|
B|---6---------2----------4----------2--------------------------------------|
G|---6---------3----------5----------3--------------------------------------|
D|---6---------3----------6----------4--------------------------------------|
A|---4---------1----------6----------4--------------------------------------|
E|------------------------4----------2--------------------------------------|


Intro: Db5   Bb5    Ab5    Gb5

Verse 1:
Db5
What I leave,
Bb5
When you go,
Ab5
What I see,
Gb5
And what you show,
Db5
And what I guess,
Bb5
And when I don't,
Ab5                     Gb5
Is something you all ready, all ready know,

Chorus:
Db5
I can't live without,
Bb5
All I think about,
Ab5            Gb5
All I want is you,
Db5
You're all I dream about,
Bb5
I can't live without,
Ab5            Gb5
All I want is you,

Verse 2:
Db5
The things I do,
Bb5
I go through,
Ab5
And all I say,
Gb5
When Im away,
Db5
And what I make,
Bb5
The s*** that I take,
Ab5                     Gb5
Is something you all ready, all ready know

Chorus:
Db5
I can't live without,
Bb5
All I think about,
Ab5            Gb5
All I want is you,
Db5
You're all I dream about,
Bb5
I can't live without,
Ab5            Gb5
All I want is you,

Bridge:
Gb5        Bb5    Gb5    Ab5
Ohhh,...
Bb5        Gb5    Ab5
Is you,
Bb5        Gb5    Ab5
Is you,
Bb5        Gb5    Ab5
Is you,
Bb5        Gb5    Ab5
Is you,
Db
You're all I dream about,
Bbm
That I can't live without,
Ab              Gb
All I want is you

Chorus:
Db5
I can't live without,
Bb5
All I think about,
Ab5            Gb5
All I want is you,
Db5
You're all I dream about,
Bb5
I can't live without,
Ab5            Gb5
All I want is you,

Outro:
Db5      Bb5
Your all dream about
Ab5          Gb5
I just can't live without you,
Db5          Bb5
When all I think about is you,
Ab5       Gb5      Db5
And all I want is you
Tap to rate this tab
 
# A B C D E F G H I J K L M N O P Q R S T U V W X Y Z