Song name
# A B C D E F G H I J K L M N O P Q R S T U V W X Y Z

Staind - Save Me tab

Staind - Save me
The Illusion Of Progress
Tuning - Eb Bb Gb Db Ab Db

Intro

Eb|--------------------------------------------------------------|
Bb|--------------------------------------------------------------|
Gb|--------------------------------------------------------------|
Db|------10-------------5-------------8-------------8------------|
Ab|----8----8---8-----3----3---3----5----5---5----5----5---5-----|
Db|--8--------8-----3--------3----5--------5----5--------5-------|

Verse

Eb|--------------------------------------------------------------|
Bb|--------------------------------------------------------------|
Gb|--------------------------------------------------------------|
Db|--------10--------------5--------------8------------8---------|
Ab|----8------8---8----3-----3---3----5-----5---5----5---5---5---|
Db|--8---8------8----3---3-----3----5---5-----5----5-------5-----|

Verse continued

Eb|--------------------------------------------------------------|
Bb|--------------------------------------------------------------|
Gb|--------------------------------------------------------------|
Db|--------10--------------5--------------8--------7---5---------|
Ab|----8------8---8----3-----3---3----5-----5---5--------5---5---|
Db|--8---8------8----3---3-----3----5---5-----5------5-----5-----|

Verse Continued

Eb|--------------------------------------------------------------|
Bb|--------------------------------------------------------------|
Gb|--------------------------------------------------------------|
Db|--------10--------------5--------------8------------8---------|
Ab|----8------8---8----3-----3---3----5-----5---5----5---5---5---|
Db|--8---8------8----3---3-----3----5---5-----5----5-------5-----|

Verse Ending

Eb|--------------------------------------------------------------|
Bb|--------------------------------------------------------------|
Gb|--------------------------------------------------------------|
Db|--------10--------------5--------5-5-5-5-5-x-x-x-5-5-5-5-5----|
Ab|----8------8---8----3-----3---3--5-5-5-5-5-x-x-x-5-5-5-5-5----|
Db|--8---8------8----3---3-----3----5-5-5-5-5-x-x-x-5-5-5-5-5----|

Chorus

Eb|--------------------------------------------------------------|
Bb|--------------------------------------------------------------|
Gb|--------------------------------------------------------------|
Db|--8-8-8-8-8-8-8--0--3-3--3-3--3--5-5--8fb--5-5--8fb-----------|
Ab|--8-8-8-8-8-8-8--0--3-3--3-3--3--5-5-------5-5----------------|
Db|--8-8-8-8-8-8-8--0--3-3--3-3--3--5-5-------5-5----------------|

Chorus continued

Eb|------------------------------------------------------------------------|
Bb|------------------------------------------------------------------------|
Gb|------------------------------------------------------------------------|
Db|--8-8-8-8-8-8--0--3-3-3-3-3-3-3-3--5-5-5-5-5-5-5-5--------------------5-|
Ab|--8-8-8-8-8-8--0--3-3-3-3-3-3-3-3--5-5-5-5-5-5-5-5--Repeat and end on-5-|
Db|--8-8-8-8-8-8--0--3-3-3-3-3-3-3-3--5-5-5-5-5-5-5-5--------------------5-|

Bridge

Eb|------------------------------------------------------------------------|
Bb|------------------------------------------------------------------------|
Gb|------------------------------------------------------------------------|
Db|--5-5-5-5-5-5-5-5-5-5-5-5-5-5-5--1-1-1-1-1--5-5-5-5-5--5-5-5-5----------|
Ab|--5-5-5-5-5-5-5-5-5-5-5-5-5-5-5--1-1-1-1-1--5-5-5-5-5--5-5-5-5----------|
Db|--5-5-5-5-5-5-5-5-5-5-5-5-5-5-5--1-1-1-1-1--5-5-5-5-5--5-5-5-5----------|

And there you go! Enjoy and please tell em what you think.
Tap to rate this tab
 
# A B C D E F G H I J K L M N O P Q R S T U V W X Y Z