Song name
# A B C D E F G H I J K L M N O P Q R S T U V W X Y Z

Status Quo - Sorry tab

Help us improve GuitareTab! Take a short survey!
Sorry
Status Quo
Thirsty Work 1994

  
  EADGBE       EADGBE
A x02220   F#m x44222


  EADGBE     EADGBE
D xx0232  Dm xx0231

  EADGBE
E 022100

  Intro
E|-7-5--------------------------------------x------------------|
B|-----5----------7-------------------------x-7b-rb-5-------5~-|
G|-------6--6-4-----6-6--6-4---6-7----6-8---x---------6-4------|
D|--------------7------------7-----9------9-x-------------7----|
A|------------------------------------------x------------------|
E|------------------------------------------x------------------|

  Dominant Run
E|---------------|
B|---------------|
G|---------------|
D|-------------0-|
A|-------0-2-4---|
E|-0-2-4---------|


A                                      F#m
Whispering, you know I saw you were whispering
A                                    F#m
Listening, you didn't think I was listening
                             D           Dm
I got the right things all wrong again, once again
   A                E
I hurt you, never feeling

Related for Sorry tab