Guitaretab - guitar tabs
Song name
# A B C D E F G H I J K L M N O P Q R S T U V W X Y Z

Steel Dragon - We All Die Young tab

-----------------------------------------------------------------------
we all die young solo - steel dragon
-----------------------------------------------------------------------
Tabbed by: David Walsh 
Email: freakydiky848@hotmail.com

Tuning: standard

e|--------------------------------------------------------------------|
B|-------6h8p6--6-----8h10p8--8--------8h10---11b--10-8--10-8h10------|
G|---6-------------8--------------8h10--------------------------8h10p8|
D|--------------------------------------------------------------------|
A|--------------------------------------------------------------------|
E|--------------------------------------------------------------------|
[ Tab from: http://www.guitaretab.com/s/steel-dragon/32043.html ]
e|------------------------------------------------------------15p13p10|
B|-------------------------------6h8p6--6---8h10p8-8------8h10--------|
G|-----------------------------6----------8----------8h10-------------|
D|-8h10p8-------------------------------------------------------------|
A|---------8h10p8-10p810b-8~-----------------------------------------|
E|--------------------------------------------------------------------|

e|-15p13p10-15p13p1017b----------------------------------------------|
B|-----------------------15h17p15----------------------15b-12-15h12p15|
G|--------------------------------15h17p15----------------------------|
D|-----------------------------------------15h17p15-17~---------------|
A|--------------------------------------------------------------------|
E|--------------------------------------------------------------------|

e|-12b-15b-1215p12h15--16hb-16hb-------------------------------------|
B|---------------------------------14h16------------------------------|
G|---------------------------------------14h16p14---------------------|
D|--------------------------------------------------------------------|
A|--------------------------------------------------------------------|
E|--------------------------------------------------------------------|


| /  slide up
| \  slide down
| h  hammer-on
| p  pull-off
| ~  vibrato
| +  harmonic
| x  Mute note
| b  bend
| fb full bend
=======================================================================
Related for We All Die Young tab