Guitaretab - guitar tabs
Song name
# A B C D E F G H I J K L M N O P Q R S T U V W X Y Z

Steel Dragon - Long Live Rock N Roll tab

Tabbed by Ben Vasquez C.C. Texas
ok this may be my final submission tonight thanks alot here is
"Long Live Rock n Roll" by Steel Dragon

e---------------------------------------------------------|
B---------------------------------------------------------|
G---------------4----2------------------------------------|
D---------------4-0--2-4--2---2---2-4---------------------|
A--2-3-4---------------4--2-0-2-0-2-4---------------------|
E--0-1-2-2--0---------------------------------------------|


e---------------------------------------------------------|
B---------------------------------------------------------|
G----4----2-----------------------------------------------|
D----4-0--2-4---------------------------------------------|
A-----------4---------------------------------------------|
E--------------0-1-0-1-2~---------------------------------|

[ Tab from: http://www.guitaretab.com/s/steel-dragon/44650.html ]
e---------------------------------------------------------|
B---------------------------------------------------------|
G---------------------------------------------------------|
D--4-2----------------------------------------------------|
A-------4-2-------2-3-4-----------------------------------|
E------------5-2--0-1-2-----------------------------------|


this is the tricky part
e---------------------------|-------|-----------------------|
B---------------------------|-------|-----------------------|
G---------------------------|-------|-----------------------|
D--------~4-----------------|-------|--4-2-4-2-4-2-4-2------|
A------------------4-2---0--|-------|-----------------------|
E--0-0------0-0-X-----------|---3~--|-----------------------|

e----------------------|------|-----------------------------|
B----------------------|--2---|-----------------------------|
G--2-------------2--4--|--4~--|-----------------------------|
D--0-----4-------0--2--|------|-----------------------------|
A-----2--2--4----------|------|---------------------2-3-4---|
E-----0-----2----------|------|-0-0-0-0--0-0-0-0----0-1-2---|


thats it i hope you enjoy it and thanks to all you Steel Dragon fans
out there who came looking for this tab email me at warlock1205@yahoo.com for comments
Related for Long Live Rock N Roll tab
Advertisement will be closed in 10 seconds