Song name
# A B C D E F G H I J K L M N O P Q R S T U V W X Y Z

Stereophonics - Local Boy In The Photograph tab

Intro
E-10-----10------8-----8---------------------------------------|
B----7-8----7-8----7-8---7-8-----3-----3-----------------------|
G------------------------------2-----2-----2-----0-----0-------|
D----------------------------0-----0-----0-----0-----0-----0---|
A--------------------------------------------3-----2-----0-----|
e--------------------------------------------------------------|

Verse 1:
   G               Bm              C
e--3-3-3-3-3-3-3-3-------------------------------------------------|
B--0-0-0-0-0-0-0-0-3-3-3-3-3-3-3-3-1-1-0-0-1-1-0-0-1-1-0-0-1-1-0-0-|
G--0-0-0-0-0-0-0-0-4-4-4-4-4-4-4-4-0-0-0-0-0-0-0-0-0-0-0-0-0-0-0-0-|
D--0-0-0-0-0-0-0-0-4-4-4-4-4-4-4-4-2-2-2-2-2-2-2-2-2-2-2-2-2-2-2-2-|
A--2-2-2-2-2-2-2-2-2-2-2-2-2-2-2-2-3-3-3-3-3-3-3-3-3-3-3-3-3-3-3-3-|
E--3-3-3-3-3-3-3-3-------------------------------------------------|
(This is not a whole part played before the words enter.This is just
 a demonstration of how the chords are played by the rhythm guitar
 throughout the verses.Go straight from the INTRO to VERSE 1.)

G              Bm                C
 There?s no mistake I smell that smell,
                        G
It?s that time of year again,
      Bm        C
I can taste the air,
G              Bm            C
 The clocks go back, railway track,
		  G
Something blocks the line again,
        Bm         C                      G    Bm    C
And the train runs late for the first time

G        Bm               C
A pebble beach, were underneath,
	          G
Pier just been painted red,
         Bm       C
Where I heard the news for the first time


Chorus:
Em		        Dsus2
And all the friends lay down the flowers,
                               Am7
Sit on the banks and drink for hours,
                    e-0---
                    b---3-

Talk of the way they saw him last,

f_____i_____l_____l___G      Bm    C
Local boy in the photograph______today


Fill
e---------------------------------|
B---------------------------------|
G---------------------------------|
D---------------------------------|
A-3-2-3-2-3-2-3-2-3-2-3-2-3-2-3-2-|
E---------------------------------|

Verse 3:

G             Bm  C                           G
 He'll always be 23 yet the trains run on and on,
         Bm         C
Past the place they found his clothing

e-10-----10------8-----8-----|
B----7-8----7-8----7-8---7-8-|
G----------------------------|    This is played over Verse 3
D----------------------------|
A----------------------------|
E----------------------------| x2

Then after the verse this is played
e------------------------------|
B-----3-----3------------------|
G---2-----2--------0-----0-----|
D-0-----0--------0-----0-----0-|
A--------------3-----2-----3---|
E------------------------------| x4


Verse 4:
G              Bm                 C
 There?s no mistake I smell that smell,
                       G
Its that time of year again,
      Bm         C
I can taste the air,
G              Bm            C
 The clocks go back, railway track,
                           G
Something blocks the line again,
        Bm         C
And the train runs late for the first time today

e---------------------------------|
B-----3-----3---------------------|
G---2-----2-----2-----0-----0-----|
D-0-----0-----0-----0-----0-----0-|
A-----------------3-----2-----3---|
E---------------------------------|


Chorus:
Em		        Dsus2
And all the friends lay down the flowers,
                               Am7
Sit on the banks and drink for hours,
                    e-0---
                    b---3-

Talk of the way they saw him last,

f_____i_____l_____l___G      Bm    C
Local boy in the photograph______today

Fill
e---------------------------------|
B---------------------------------|
G---------------------------------|
D---------------------------------|
A-3-2-3-2-3-2-3-2-3-2-3-2-3-2-3-2-|
E---------------------------------|

           G   Bm    C
He's gone away

e-10-----10------8-----8-----|
B----7-8----7-8----7-8---7-8-|
G----------------------------| This is played over the final 2 sets of G Bm C
D----------------------------|
A----------------------------|
E----------------------------| x2

e------------------------------------3-|
B-----3-----3------------------------3-|
G---2-----2--------0-----0-----------0-|
D-0-----0--------0-----0-----0-------0-|
A--------------3-----2-----3---------2-|
E------------------------------------3-|
                               x4   End
                                    On
Tap to rate this tab
# A B C D E F G H I J K L M N O P Q R S T U V W X Y Z