Stereophonics - Bartender And The Thief tab

TRACK: Bartender and the Thief
ARTIST: Stereophonics

DROP D: DADGBE

INTRO:

e|---------------------|
B|---------------------|
G|---------------------|
D|-5-5-5-5-5-5-5-------|
A|-5-5-5-5-5-5-5-------|
D|-5-5-5-5-5-5-5--15/--|

VERSE:
   G7/F
e|-------------------|-------------------|
B|-------------------|-6-6-x-6-6-6-6-6-x-|
G|-4-4-x-4-4-4-4-4-x-|-4-4-x-4-4-4-4-4-x-|
D|-3-3-x-5-5-5-5-5-x-|-3-3-x-3-3-3-3-3-x-|
A|-5-5-x-5-5-5-5-5-x-|-5-5-x-5-5-5-5-5-x-|
D|-3-3-x-3-3-3-3-3-x-|-3-3-x-3-3-3-3-3-x-|

e|----------------------------|
B|----------------------------|
G|----------------------------|
D|----------------------------|:x2
A|-5--5-5-8-5-5-8-5-5------5--|
D|---------------------3-5----|

PRECHORUS:

   Bb5                G5
e|------------------|-------------------|
B|------------------|-------------------|
G|------------------|-------------------|
D|-8-8-8-8-8-8-8-8\-|-5-5-5-5-5-5-5-5/--|:x3
A|-8-8-8-8-8-8-8-8\-|-5-5-5-5-5-5-5-5/--|
D|-8-8-8-8-8-8-8-8\-|-5-5-5-5-5-5-5-5/--|

e|-------------------------------|
B|-------------------------------|
G|-------------------------------|
D|-5-5-5-5-5-5-5-5-5-5-5-5-5-5-5-|
A|-8-5-5-8-5-5-8-5-5-8-5-5-8-5-8-|
D|-5-5-5-5-5-5-5-5-5-5-5-5-5-5-5-|

CHORUS: Standard rhythm here

   D   G
e|-5-|---|
B|-7-|-0-|
G|-7-|-4-|
D|-7-|-5-|: repeat as necessary
A|-5-|-5-|
D|---|-5-|

VERSE, PRECHORUS AND CHORUS repeated again

SOLO: (with wah wah effect)

e|---------------------|
B|---------------------|
G|-----10-10--9--7--7--|
D|-----9--9---9--9--9-|:x2
A|---------------------|
D|-3\------------------|

e|------------------|
B|------------------|
G|------------------|
D|-5b------5r-vvvvv-|
A|------------------|
D|------------------|

e|---------------------|
B|---------------------|
G|-----10-10--9--7--7--|
D|-----9--9---9--9--9 -|:x2
A|---------------------|
D|-3\------------------|

e|----------------------------|-------------------------|
B|----------------------------|-------------------------|
G|----------------------------|-------------------------|
D|----------------------------|-------------------------|
A|-5--5-5-8-5-5-8-5-5------5--|-5--5-5-8-5-5-8-5-5--/17-|
D|---------------------3-5----|-------------------------|

PRECHORUS: same again, and who knows whats been played the solo guitar
CHORUS: until end

On the second repeat, the solo guitar goes..

e|---------------------|-----------------------|
B|-------------10------|-------------10--------|
G|-11--11-9-11-----7---|-11--11-9-11----7------|
D|---------------------|-------------------9-7-|
A|---------------------|-----------------------|
D|---------------------|-----------------------|

END WITH

e|---------------------|
B|---------------------|
G|---------------------|
D|---------------------|
A|---------------------|
D|-/--/---12vv-\--\--0-|

Hope thats decent enough for your liking =]
Tap to rate this tab
 
# A B C D E F G H I J K L M N O P Q R S T U V W X Y Z