Song name
# A B C D E F G H I J K L M N O P Q R S T U V W X Y Z

Steve Hackett - Walking Away From Rainbows tab

WALKING AWAY FROM RAINBOWS
STEVE HACKETT - GUITAR NOIR




|------------------------------------------------------------------------------|
|-5-5-7-7-9-9---12-12-10-10-----------10-10-9-----------------7-7-9-9-12-12-10-|
|-------------9-------------9-9-8-9-9---------9-----9-9-9-8-9------------------|
|-----------------------------------------------9-9----------------------------|
|------------------------------------------------------------------------------|
|------------------------------------------------------------------------------|


|----------------------|-------12-12-12-10-8----8-10-|
|-10---------10-10-9---|-12-12---------------12------|
|----9-9-8-9---------9-|-----------------------------|
|----------------------|-----------------------------|
|----------------------|-----------------------------|
|----------------------|-----------------------------|


|-10-8-5-5-3-0-|-12-12-12-12-10-|
|------------0-|----------------|
|------------0-|----------------|
|--9-7-4-4-2-2-|----------------|
|------------2-|----------------|
|------------0-|----------------|


|-10-10-10-------------------------------|
|----------12-12-12-12-10-10-13-13-12-12-|
|----------------------------------------|
|----------------------------------------|
|----------------------------------------|
|----------------------------------------|


|-12-12-12-12-12-14-15-------------------------------|---7-10-|
|----------------------12-12-12-12-10-10-13-13-12-12-|-8------|
|----------------------------------------------------|--------|
|----------------------------------------------------|--------|
|----------------------------------------------------|--------|
|----------------------------------------------------|--------|

                      Lento
|-8-7--------------||------------------------0-*|----|
|-----10-8-7-------||--5-5-7-7-9-9---------0---*|----|
|------------9-7---||--------------------1-----*|----|
|----------------9-||------------------2-------*|----|
|------------------||----------------2---------*|----|
|------------------||--------------0-----------*|----|



Tap to rate this tab
# A B C D E F G H I J K L M N O P Q R S T U V W X Y Z