Song name
# A B C D E F G H I J K L M N O P Q R S T U V W X Y Z

Steve Hackett - Clocks tab

                                          Artist - Steve Hackett
                                         ************************
                                    Song - Clocks - The Angel Of Mons 
                                   ***********************************
                                       Album - Spectral Mornings  
                                      ****************************
                                          Tabbed By - Ayreon77
                                         **********************



INTRO - CLOCKS
****************


------------------------------

00:45        s      s              s      s                   b     b   s
[-15-15-14-14\-10-12\-|-15-15-14-14\-10-12\-|-15-15-14-15-17-17-15-15-14\-]
[---------------------|---------------------|-----------------------------]
[---------------------|---------------------|-----------------------------]
[---------------------|---------------------|-----------------------------]
[---------------------|---------------------|-----------------------------]
[---------------------|---------------------|-----------------------------]

00:58        s      s              s      s                   b     b  b      
[-15-15-14-14\-10-12\-|-15-15-14-14\-10-12\-|-15-15-14-15-17-17-15-15-15-]
[---------------------|---------------------|----------------------------]
[---------------------|---------------------|----------------------------]
[---------------------|---------------------|----------------------------]
[---------------------|---------------------|----------------------------]
[---------------------|---------------------|----------------------------]

        s
[-16-14-\-]
[---------]
[---------]
[---------]
[---------]
[---------]


------------------------------
CLOCKS
*******
------------------------------

01:49        s      s              s      s                   b     b   s
[-15-15-14-14\-10-12\-|-15-15-14-14\-10-12\-|-15-15-14-15-17-17-15-15-14\-]
[---------------------|---------------------|-----------------------------]
[---------------------|---------------------|-----------------------------]
[---------------------|---------------------|-----------------------------]
[---------------------|---------------------|-----------------------------]
[---------------------|---------------------|-----------------------------]

02:02        s      s              s      s                   b     b   s
[-15-15-14-14\-10-12\-|-15-15-14-14\-10-12\-|-15-15-14-15-17-17-15-15-14\-]
[---------------------|---------------------|-----------------------------]
[---------------------|---------------------|-----------------------------]
[---------------------|---------------------|-----------------------------]
[---------------------|---------------------|-----------------------------]
[---------------------|---------------------|-----------------------------]


------------------------------
videos i,ve seen of him playing this, he has a ring slide on his right hand.
02:14
[--s-]
[-2\-]
[----]
[----]
[----]
[----]X16


------------------------------
02:26        s      s              s      s                   b     b  b      
[-15-15-14-14\-10-12\-|-15-15-14-14\-10-12\-|-15-15-14-15-17-17-15-15-15-]
[---------------------|---------------------|----------------------------]
[---------------------|---------------------|----------------------------]
[---------------------|---------------------|----------------------------]
[---------------------|---------------------|----------------------------]
[---------------------|---------------------|----------------------------]

       s   s
[-16-10\14-\-]
[------------]
[------------]
[------------]
[------------]
[------------]


------------------------------
02:42
[----------------14-|----------------14-|--------------------14-]
[-------------14----|-------------14----|----------------14-----]
[----13-14-16-------|----13-14-16-------|-------------14--------]
[-16----------------|-16----------------|----13-14-16-----------]
[-------------------|-------------------|-16--------------------]
[-------------------|-------------------|-----------------------]


[-14-15-17-18-19-]
[----------------]
[----------------]
[----------------]
[----------------]
[----------------]


------------------------------
I Think he uses vol pedal or guitar vol for these notes.
02:56
[--------------------------]
[--------------------------]
[-10---12-10---9---scratch-]
[------------------X-------]
[-----------------X--------]
[--------------------------]


ENJOY............
Tap to rate this tab
# A B C D E F G H I J K L M N O P Q R S T U V W X Y Z