Song name
# A B C D E F G H I J K L M N O P Q R S T U V W X Y Z

Steve Hackett - Cast Adrift tab

                                  CAST ADRIFT

				 STEVE HACKETT


Mathew PICCIRILLO!

    Intro
E---||---0--------------------|--0--------------------|--5--2--|--3-----|
B---||------3--2--0-----------|-----3--2--0-----------|--5--3--|--------|
G---||*-----------------------|-----------------------|-----2--|--------|
D---||*-----------------------|-----------------------|--------|--------|
A---||------------------------|-----------------------|--4-----|--------|
E---||---0-----------0--2--3--|--0-----------0--2--3--|--------|--0-----|

E---2--3--2--0-----0--2--0-----|--3--2--3--2--0-----0--2--0-----|-------|
B---------------3--------2--2--|-----------------3--------2--2--|--3----|
G------------------------------|--------------------------------|-------|
D------------------------------|--------------------------------|-------|
A------------------------0-----|--------------------------0-----|--2----|
E------------------------------|--0-----------------------------|-------|

E---------5--2--||--7--5--7--0--------------5--|--7--5--7--0------------|
B---2--0--5--3--||-----------2--------0--------|-----------2------------|
G------------2--||-----------2-----2-----2-----|-----------2-----2------|
D---------------||-----------2-----------------|-----------2------------|
A---------4-----||-----------0-----------------|-----------0------------|
E---------------||--0-----------2--------------|--0-----------2---------|

E------------------------------------|--7--5--7--0--------------5--|----|
B---0-----0-----0--0-----------0-----|-----------2--------0--------|----|
G------2-----2--------2-----2-----2--|-----------2-----2-----2-----|----|
D------------------------0-----------|-----------2-----------------|----|
A------------------------------------|-----------0-----------------|----|
E---------------2--------------------|--0-----------2--------------|----|

E------0-----------0-----0--|--2--0--|--10--7--10--0--------------5-----|
B---3-----3--2--0-----3--0--|--------|-------------2--------0-----------|
G------------------------1--|--------|-------------2-----2-----2--------|
D------------------------2--|--------|-------------2--------------------|
A---2-----0--------------2--|--------|-------------0--------------------|
E------------------------0--|--------|--0-------------2-----------------|

E---|--10--7--10--0-----------------------------------------|--10--7----|
B---|-------------2--------0-----0-----0--0-----------0-----|-----------|
G---|-------------2-----2-----2-----2--------2-----2-----2--|-----------|
D---|-------------2-----------------------------0-----------|-----------|
A---|-------------0-----------------------------------------|-----------|
E---|--0-------------2-----------------2--------------------|--0--------|

E---10--0--------------5--|-----0-----------0-----0--||--2--0-----------|
B-------2--------0--------|--3-----3--2--0-----3--0--||--------3--------|
G-------2-----2-----2-----|-----------------------1--||-----------2-----|
D-------2-----------------|-----------------------2--||--------0--------|
A-------0-----------------|--2-----0--------------2--||-----------------|
E----------2--------------|-----------------------0--||-----------------|

E------0--2--2--3--2--0--------|--2--0-----------0--2--2--3--2--0-------|
B---3--------3--3-----2--3--2--|--------3-----3--------3--3-----2--3----|
G------------2--------2--------|-----------2-----------2--------2-------|
D------------0--2-----2--------|--------0--------------0--2-----2-------|
A---------------------0--------|--------------------------------0-------|
E------------------------------|----------------------------------------|

E------|--------0--2--5--2-----0-----------0-----0--||--0---------------|
B---2--|--3--3-----3--2--3--3-----3--2--0-----3--0--||-----3--2--0------|
G------|-----------2--2--2-----------------------1--||------------------|
D------|-----------0--2--0-----------------------2--||------------------|
A------|--2-----------0-----2-----0--------------2--||------------------|
E------|-----------------------------------------0--||--0---------------|

E------------|--0--------------------|--5--2--|--3--2--3--2--0-----0----|
B------------|-----3--2--0-----------|--5--3--|-----------------3-------|
G------------|-----------------------|-----2--|-------------------------|
D------------|-----------------------|--------|-------------------------|
A------------|-----------------------|--4-----|-------------------------|
E---0--2--3--|--0-----------0--2--3--|--------|--0----------------------|

E---2--0-----|--3--2--3--2--0-----0--2--0-----|-----------5-----||------|
B------2--2--|-----------------3--------2--2--|--3--2--0--5--7--||------|
G------------|--------------------------------|--------------8--||------|
D------------|--------------------------------|--------------9--||------|
A------0-----|--------------------------0-----|--2--------4--9--||------|
E------------|--0-----------------------------|-----------------||------|
Tap to rate this tab
 
# A B C D E F G H I J K L M N O P Q R S T U V W X Y Z