Song name
# A B C D E F G H I J K L M N O P Q R S T U V W X Y Z

Steve Miller Band - Rockin Me tab

-------------------------------------------------------------------------------
			     SONG NAME - Band Name
-------------------------------------------------------------------------------
Tabbed by: Ken Combs
Email: TH1NKZ@yahoo.com

Tuning: Standard (EBGDAE)

NOTES: My first TAB, so it'd be nice if someone sent me any corrections. :D




INTRO:

e|------------------------------------------------------|e
b|------------------------------------------------------|b
g|------------999---------------------------------------|g
d|-7-777-9\-9-777-9\-9----9-9----9-9----9-9----11-9\----|d
a|-7-777-7\-7-777-9\-9h11---9h11---9h11---9h11-11-9\----|a
E|-5-555-7\-7-----7\------------------------------7\----|E

PRE-VERSE:

e|------------------------------------------------------|e
b|------------------------------------------------------|b
g|------------------------------------------------------|g
d|------------------------------------------------------|d
a|-----2-5---2~----2-5---2~-----------------------------|a
E|-2-5-----5---2-5-----5--------------------------------|E

CHORUS:

e|-----------------------------------=
b|-----------------------------------=
g|-----------------------------------=
d|-9999999999999999-7777777777777777-=
a|-9999999999999999-7777777777777777-=
E|-7777777777777777-5555555555555555-=

=-----------------------------------|e
=-----------------------------------|b
=-9999999999999999------------------|g
=-9999999999999999-9999999999999999-|d
=-7777777777777777-9999999999999999-|a
=------------------7777777777777777-|E
Tap to rate this tab
# A B C D E F G H I J K L M N O P Q R S T U V W X Y Z