Song name
# A B C D E F G H I J K L M N O P Q R S T U V W X Y Z

Stormtroopers Of Death - Bigger Than The Devil tab

#----------------------------------PLEASE NOTE---------------------------------#
#This file is the author's own work and represents their interpretation of the #
#song. You may only use this file for private study, scholarship, or research. #
#------------------------------------------------------------------------------#

BIGGER THAN THE DEVIL
As recorded by Stormtroopers Of Death
(From the 1999 Album BIGGER THAN THE DEVIL)

Transcribed by Bill Thompson
	

Words and Music by Stormtroopers Of Death
Arranged by Stormtroopers Of Death

Gtr I (C G C G B E) - 'Untitled'

               Intro
            D5  EbD5                 D5      EbD5            D5
 4/4
            Gtr I
                                     PM|                     PM--------|
  H    Q.   E   E E H    Q    H    E E E E   E E H    Q    E E E E E E E E
|-------------|-------------|--------------|-------------|------------------||
|-------------|-------------|--------------|-------------|------------------||
|-------------|-------------|--------------|-------------|------------------||
|-------------|-------------|--------------|-------------|------------------||
|-----------0-|-1-0---------|--------0-0-0-|-1-0---------|---0-0-0-0-0-0-0--||
|-----------0-|-1-0---------|--------0-0-0-|-1-0---------|---0-0-0-0-0-0-0--||


   Verse
    EbD5  F5 B5 D5  EbD5  F5 B5C5B5  EbD5  F5 B5 D5
    E E E Q  Q  E   E E E Q  E E E   E E E Q  Q  E
||----------------|----------------|---------------|
||o---------------|----------------|---------------|
||----------------|----------------|---------------|
||-----------4----|----------4-5-4-|----------4----|
||o-1-0-0-3--2--0-|-1-0-0-3--2-3-2-|-1-0-0-3--2--0-|
||--1-0-0-3-----0-|-1-0-0-3--------|-1-0-0-3-----0-|


  1.                  2.
  EbD5                EbD5  F5 B5C5D5
      PM------|
  E E E E E E E E     E E E Q  E E E
|------------------||-----------------||
|-----------------o||-----------------||
|------------------||-----------------||
|------------------||----------4-5----||
|-1-0-0-0-0-0-0-0-o||-1-0-0-3--2-3-0--||
|-1-0-0-0-0-0-0-0--||-1-0-0-3------0--||


 Pre-Verse
  EbD5                 D5      EbD5            D5
                       PM|                     PM--------|
  E E H    Q    H    E E E E   E E H    Q    E E E E E E E E
|-------------|--------------|-------------|------------------||
|-------------|--------------|-------------|------------------||
|-------------|--------------|-------------|------------------||
|-------------|--------------|-------------|------------------||
|-1-0---------|--------0-0-0-|-1-0---------|---0-0-0-0-0-0-0--||
|-1-0---------|--------0-0-0-|-1-0---------|---0-0-0-0-0-0-0--||


   Verse
    EbD5  F5 B5 D5  EbD5  F5 B5C5B5  EbD5  F5 B5 D5
    E E E Q  Q  E   E E E Q  E E E   E E E Q  Q  E
||----------------|----------------|---------------|
||o---------------|----------------|---------------|
||----------------|----------------|---------------|
||-----------4----|----------4-5-4-|----------4----|
||o-1-0-0-3--2--0-|-1-0-0-3--2-3-2-|-1-0-0-3--2--0-|
||--1-0-0-3-----0-|-1-0-0-3--------|-1-0-0-3-----0-|


  1.                  2.
  EbD5                EbD5  F5 B5C5B5
      PM------|
  E E E E E E E E     E E E Q  E E E
|------------------||-----------------||
|-----------------o||-----------------||
|------------------||-----------------||
|------------------||----------4-5-4--||
|-1-0-0-0-0-0-0-0-o||-1-0-0-3--2-3-2--||
|-1-0-0-0-0-0-0-0--||-1-0-0-3---------||


   Chorus
    D5                                                       D5
    s s s s e s s s s e s s s s   e s s s s e s s s S   Q    s s s s e s s s s e s s s s
||------------------------------|--------------------------|-----------------------------|
||o-----------------------------|--------------------------|-----------------------------|
||------------------------------|--------------------------|-----------------------------|
||------------------------------|--------------------------|-----------------------------|
||o-0-0-0-----0-0-0-----0-0-0---|---0-0-0-----0-0-0---/12--|-0-0-0-----0-0-0-----0-0-0---|
||--0-0-0-----0-0-0-----0-0-0---|---0-0-0-----0-0-0--------|-0-0-0-----0-0-0-----0-0-0---|


    1.                                     2.
  e s s s S E S S   S  S  S  S  S  S     E s s s S H     E
|-------------------------------------||-------------------||
|------------------------------------o||-------------------||
|-------------------------------------||-------------------||
|------------------------12-12--------||-------------------||
|---0-0-0-----0-0-/12-12-------12-12-o||---0-0-0---------0-||
|---0-0-0-----0-0---------------------||---0-0-0---------0-||


   Verse
    EbD5  F5 B5 D5  EbD5  F5 B5C5B5  EbD5  F5 B5 D5
    E E E Q  Q  E   E E E Q  E E E   E E E Q  Q  E
||----------------|----------------|---------------|
||o---------------|----------------|---------------|
||----------------|----------------|---------------|
||-----------4----|----------4-5-4-|----------4----|
||o-1-0-0-3--2--0-|-1-0-0-3--2-3-2-|-1-0-0-3--2--0-|
||--1-0-0-3-----0-|-1-0-0-3--------|-1-0-0-3-----0-|


  1.                  2.
  EbD5                EbD5  F5 B5C5B5
      PM------|
  E E E E E E E E     E E E Q  E E E
|------------------||-----------------||
|-----------------o||-----------------||
|------------------||-----------------||
|------------------||----------4-5-4--||
|-1-0-0-0-0-0-0-0-o||-1-0-0-3--2-3-2--||
|-1-0-0-0-0-0-0-0--||-1-0-0-3---------||


 Pre-Verse
  EbD5                 D5      EbD5            D5
                       PM|                     PM--------|
  E E H    Q    H    E E E E   E E H    Q    E E E E E E E E
|-------------|--------------|-------------|------------------|
|-------------|--------------|-------------|------------------|
|-------------|--------------|-------------|------------------|
|-------------|--------------|-------------|------------------|
|-1-0---------|--------0-0-0-|-1-0---------|---0-0-0-0-0-0-0--|
|-1-0---------|--------0-0-0-|-1-0---------|---0-0-0-0-0-0-0--|


   Verse
    EbD5  F5 B5 D5  EbD5  F5 B5C5B5  EbD5  F5 B5 D5  EbD5  F5 B5C5B5
    E E E Q  Q  E   E E E Q  E E E   E E E Q  Q  E   E E E Q  E E E
||----------------|----------------|---------------|-----------------||
||o---------------|----------------|---------------|----------------o||
||----------------|----------------|---------------|-----------------||
||-----------4----|----------4-5-4-|----------4----|----------4-5-4--||
||o-1-0-0-3--2--0-|-1-0-0-3--2-3-2-|-1-0-0-3--2--0-|-1-0-0-3--2-3-2-o||
||--1-0-0-3-----0-|-1-0-0-3--------|-1-0-0-3-----0-|-1-0-0-3---------||


   Chorus
    D5
    s s s s e s s s s e s s s s   e s s s s e s s s S   Q
||------------------------------|--------------------------|
||o-----------------------------|--------------------------|
||------------------------------|--------------------------|
||------------------------------|--------------------------|
||o-0-0-0-----0-0-0-----0-0-0---|---0-0-0-----0-0-0---/12--|
||--0-0-0-----0-0-0-----0-0-0---|---0-0-0-----0-0-0--------|


                                  1.                                     2.
  D5
  s s s s e s s s s e s s s s   e s s s s e s s   S  S  S  S  S  S     E s s s H    E.
|-----------------------------|-------------------------------------||-------------------|
|-----------------------------|------------------------------------o||-------------------|
|-----------------------------|-------------------------------------||-------------------|
|-----------------------------|------------------------12-12--------||-------------------|
|-0-0-0-----0-0-0-----0-0-0---|---0-0-0-----0-0-/12-12-------12-12-o||---0-0-0-----------|
|-0-0-0-----0-0-0-----0-0-0---|---0-0-0-----0-0---------------------||---0-0-0-----------|


   Outro
    D5
      PM---------------------------
    E S S S S S S S S S S S S S S
||--------------------------------|
||o-------------------------------|
||--------------------------------|
||--------------------------------|
||o-0-0-0-0-0-0-0-0-0-0-0-0-0-0-0-|
||--0-0-0-0-0-0-0-0-0-0-0-0-0-0-0-|


                                            D5
 -------------------|
  S S S S S S S S S S  S  S  S  S  S  S  4x S S e Q  H
|----------------------------------------||---------------*|
|---------------------------------------o||---------------*|
|----------------------------------------||---------------*|
|---------------------------12-12--------||-7-7-7---------*|
|-0-0-0-0-0-0-0-0-0-0-12-12-------12-12-o||-5-5-5---------*|
|-0-0-0-0-0-0-0-0-0-0--------------------||-0-0-0---------*|



Duration Legend
---------------
W - whole; H - half; Q - quarter; E - 8th; S - 16th; T - 32nd; X - 64th; a - acciaccatura
+ - note tied to previous; . - note dotted; .. - note double dotted
Uncapitalized letters represent notes that are staccato (1/2 duration)
Irregular groupings are notated above the duration line
Duration letters will always appear directly above the note/fret number it represents the
duration for.  Duration letters with no fret number below them represent rests.  Multi-
bar rests are notated in the form Wxn, where n is the number of bars to rest for.  Low
melody durations appear below the staff

Tablature Legend
----------------
 h   - hammer-on
 p   - pull-off
 b   - bend
 pb  - pre-bend
 r   - bend release (if no number after the r, then release immediately)
 /\  - slide into or out of (from/to "nowhere")
 s   - legato slide
 S   - shift slide
 - natural harmonic
[n]  - artificial harmonic
n(n) - tapped harmonic
 ~   - vibrato
 tr  - trill
 T   - tap
 TP  - trem. picking
 PM  - palm muting
\n/  - tremolo bar dip; n = amount to dip
 \n  - tremolo bar down
 n/  - tremolo bar up
/n\  - tremolo bar inverted dip
 =   - hold bend; also acts as connecting device for hammers/pulls
 <> - volume swell (louder/softer)
 x   - on rhythm slash represents muted slash
 o   - on rhythm slash represents single note slash

Misc Legend
-----------
 |  - bar
||  - double bar
||o - repeat start
o|| - repeat end
*|  - double bar (ending)
 :  - bar (freetime)
 $  - Segno
 &  - Coda
Tempo markers -  = BPM(8/16=s8/s16), where s8 = swing 8ths, s16 = swing 16ths

Tap to rate this tab
 
# A B C D E F G H I J K L M N O P Q R S T U V W X Y Z