Guitaretab - guitar tabs
Song name
# A B C D E F G H I J K L M N O P Q R S T U V W X Y Z

Stormtroopers Of Death - Milk tab

#----------------------------------PLEASE NOTE---------------------------------#
#This file is the author's own work and represents their interpretation of the #
#song. You may only use this file for private study, scholarship, or research. #
#------------------------------------------------------------------------------#

MILK
As recorded by Stormtroopers of Death
(From the 1985 Album STORMTROOPERS OF DEATH)

Transcribed by Jordan
	

Words and Music by Stormtroopers of Death

Gtr I (E A D G B E) - 'Scott Ian'

   Intro
    Halftime Q=110
    N.C.
   4/4
    Gtr I
    W          W          W          W
||-----------|----------|----------|-------||
||o----------|----------|----------|------o||
||-----------|----------|----------|-------||
||-----------|----------|----------|-------||
||o----------|----------|----------|------o||
||-----------|----------|----------|-------||


  F#5G5 F#5       E5F#G5F#5       F#5G5 F#5       E5F#G5A5 G5
                  |-3-|                           |-3-|
  Q  Q  Q  +Q     Q Q Q Q  +Q     Q  Q  Q  +Q     Q Q Q Q  Q
|---------------|---------------|---------------|-------------|
|---------------|---------------|---------------|-------------|
|---------------|---------------|---------------|-------------|
|-4--5--4--(4)--|-2-4-5-4--(4)--|-4--5--4--(4)--|-2-4-5-7--5--|
|-4--5--4--(4)--|-2-4-5-4--(4)--|-4--5--4--(4)--|-2-4-5-7--5--|
|-2--3--2--(2)--|-0-2-3-2--(2)--|-2--3--2--(2)--|-0-2-3-5--3--|


                                                  H=H
  F#5G5 F#5       E5F#G5F#5       F#5G5 F#5       E5F#G5A5 G5
                  |-3-|                           |-3-|
  Q  Q  Q  +Q     Q Q Q Q  +Q     Q  Q  Q  +Q     Q Q Q Q  Q
|---------------|---------------|---------------|-------------|
|---------------|---------------|---------------|-------------|
|---------------|---------------|---------------|-------------|
|-4--5--4--(4)--|-2-4-5-4--(4)--|-4--5--4--(4)--|-2-4-5-7--5--|
|-4--5--4--(4)--|-2-4-5-4--(4)--|-4--5--4--(4)--|-2-4-5-7--5--|
|-2--3--2--(2)--|-0-2-3-2--(2)--|-2--3--2--(2)--|-0-2-3-5--3--|


    Thrashtime Q=224
    F#5G5 F#5       E5F#G5F#5       F#5G5 F#5       E5F#G5A5 G5
            PM--|           PM--|           PM--|
                    |-3-|                           |-3-|
    Q  Q  E E E E   Q Q Q E E E E   Q  Q  E E E E   Q Q Q Q  Q
||----------------|---------------|---------------|--------------||
||o---------------|---------------|---------------|-------------o||
||----------------|---------------|---------------|--------------||
||--4--5--4-------|-2-4-5-4-------|-4--5--4-------|-2-4-5-7--5---||
||o-4--5--4-------|-2-4-5-4-------|-4--5--4-------|-2-4-5-7--5--o||
||--2--3--2-0-0-0-|-0-2-3-2-0-0-0-|-2--3--2-0-0-0-|-0-2-3-5--3---||


   Verse I
    $
    F#5G5 F#5       E5F#G5F#5       F#5G5 F#5       E5F#G5A5 G5
            PM--|           PM--|           PM--|
                    |-3-|                           |-3-|
    Q  Q  E E E E   Q Q Q E E E E   Q  Q  E E E E   Q Q Q Q  Q
||----------------|---------------|---------------|--------------||
||o---------------|---------------|---------------|-------------o||
||----------------|---------------|---------------|--------------||
||--4--5--4-------|-2-4-5-4-------|-4--5--4-------|-2-4-5-7--5---||
||o-4--5--4-------|-2-4-5-4-------|-4--5--4-------|-2-4-5-7--5--o||
||--2--3--2-0-0-0-|-0-2-3-2-0-0-0-|-2--3--2-0-0-0-|-0-2-3-5--3---||

[ Tab from: http://www.guitaretab.com/s/stormtroopers-of-death/171525.html ]
   Chorus
    B5 C5 B5        D5C5A5B5        B5 C5 B5        D5C5A5B5 C5
            PM--|           PM--|           PM--|
                    |-3-|                           |-3-|
    Q  Q  E E E E   Q Q Q E E E E   Q  Q  E E E E   Q Q Q Q  Q
||----------------|---------------|---------------|--------------||
||o---------------|---------------|---------------|-------------o||
||--4--5--4-------|-7-5-2-4-------|-4--5--4-------|-7-5-2-4--5---||
||--4--5--4-------|-7-5-2-4-------|-4--5--4-------|-7-5-2-4--5---||
||o-2--3--2-2-2-2-|-5-3-0-2-2-2-2-|-2--3--2-2-2-2-|-5-3-0-2--3--o||
||----------------|---------------|---------------|--------------||


   Verse II
                                                                     D.S.
    E5 F5  G5  F5    E5 D5 F5            E5 F5  G5  F5    E5 D5 F5
    Q   Q   Q   Q    Q  Q   E  E  E  E   Q   Q   Q   Q    Q  Q   E  E  E  E  6x
||-----------------|-------------------|----------------|--------------------||
||o----------------|-------------------|----------------|-------------------o||
||--9--10--12--10--|-9--7--10-10-10-10-|-9--10--12--10--|-9--7--10-10-10-10--||
||--9--10--12--10--|-9--7--10-10-10-10-|-9--10--12--10--|-9--7--10-10-10-10--||
||o-7---8--10---8--|-7--5---8--8--8--8-|-7---8--10---8--|-7--5---8--8--8--8-o||
||-----------------|-------------------|----------------|--------------------||


 Outro Chorus
  F#5G5 F#5       E5F#G5F#5       F#5G5 F#5       E5F#G5A5 G5
          PM--|           PM--|           PM--|
                  |-3-|                           |-3-|
  Q  Q  E E E E   Q Q Q E E E E   Q  Q  E E E E   Q Q Q Q  Q
|---------------|---------------|---------------|-------------|
|---------------|---------------|---------------|-------------|
|---------------|---------------|---------------|-------------|
|-4--5--4-------|-2-4-5-4-------|-4--5--4-------|-2-4-5-7--5--|
|-4--5--4-------|-2-4-5-4-------|-4--5--4-------|-2-4-5-7--5--|
|-2--3--2-0-0-0-|-0-2-3-2-0-0-0-|-2--3--2-0-0-0-|-0-2-3-5--3--|


  F#5G5 F#5       E5F#G5F#5       F#5G5 F#5       E5F#G5A5 G5   F#5
          PM--|           PM--|           PM--|
                  |-3-|                           |-3-|
  Q  Q  E E E E   Q Q Q E E E E   Q  Q  E E E E   Q Q Q Q  Q    Q  Q  H
|---------------|---------------|---------------|-------------|------------*|
|---------------|---------------|---------------|-------------|------------*|
|---------------|---------------|---------------|-------------|------------*|
|-4--5--4-------|-2-4-5-4-------|-4--5--4-------|-2-4-5-7--5--|-4----------*|
|-4--5--4-------|-2-4-5-4-------|-4--5--4-------|-2-4-5-7--5--|-4----------*|
|-2--3--2-0-0-0-|-0-2-3-2-0-0-0-|-2--3--2-0-0-0-|-0-2-3-5--3--|-2----------*|



Duration Legend
---------------
W - whole; H - half; Q - quarter; E - 8th; S - 16th; T - 32nd; X - 64th; a - acciaccatura
+ - note tied to previous; . - note dotted; .. - note double dotted
Uncapitalized letters represent notes that are staccato (1/2 duration)
Irregular groupings are notated above the duration line
Duration letters will always appear directly above the note/fret number it represents the
duration for.  Duration letters with no fret number below them represent rests.  Multi-
bar rests are notated in the form Wxn, where n is the number of bars to rest for.  Low
melody durations appear below the staff

Tablature Legend
----------------
 h   - hammer-on
 p   - pull-off
 b   - bend
 pb  - pre-bend
 r   - bend release (if no number after the r, then release immediately)
 /\  - slide into or out of (from/to "nowhere")
 s   - legato slide
 S   - shift slide
 - natural harmonic
[n]  - artificial harmonic
n(n) - tapped harmonic
 ~   - vibrato
 tr  - trill
 T   - tap
 TP  - trem. picking
 PM  - palm muting
\n/  - tremolo bar dip; n = amount to dip
 \n  - tremolo bar down
 n/  - tremolo bar up
/n\  - tremolo bar inverted dip
 =   - hold bend; also acts as connecting device for hammers/pulls
 <> - volume swell (louder/softer)
 x   - on rhythm slash represents muted slash
 o   - on rhythm slash represents single note slash

Misc Legend
-----------
 |  - bar
||  - double bar
||o - repeat start
o|| - repeat end
*|  - double bar (ending)
 :  - bar (freetime)
 $  - Segno
 &  - Coda
Tempo markers -  = BPM(8/16=s8/s16), where s8 = swing 8ths, s16 = swing 16ths

Related for Milk tab