Guitaretab - guitar tabs
Song name
# A B C D E F G H I J K L M N O P Q R S T U V W X Y Z

Streetlight Manifesto - Keasby Nights tab

originally by Catch 22 but its pretty much the same. streetlight says that this
version is better anyway.

Order:

Intro
Verse
Chorus
Intro (2nd part)
Verse
Chorus
Horns and drums (no guitar)
Intro (2nd part)
Drums and Vocals (no guitar)
Chorus
Fin!
_____________________________________________________________________________
Intro (1st part)

e|5xxx7xxx7xxx5xxx5xxx7xxx5xxx7xxx|
B|5xxx9xxx7xxx7xxx5xxx9xxx7xxx9xxx|
G|6xxx9xxx8xxx7xxx6xxx9xxx7xxx9xxx|
D|7xxx9xxx9xxx7xxx7xxx9xxx7xxx9xxx|
A|7xxx7xxx9xxx5xxx7xxx7xxx5xxx7xxx|
E|5xxx7xxx7xxx5xxx5xxx7xxx5xxx7xxx|x2

2nd part

e|-5-5-4-4-7-7-5-5-5-5-4-4-2-2-4-4|
B|-5-5-5-5-7-7-7-7-5-5-5-5-3-3-5-5|
G|-6-6-4-4-8-8-7-7-6-6-4-4-2-2-4-4|
D|--------------------------------|
A|--------------------------------|
E|--------------------------------|x2
_____________________________________________________________________________
Verse (1st part)
[ Tab from: http://www.guitaretab.com/s/streetlight-manifesto/153278.html ]
e|5-5--5-54-4--4-47-7--7-75-5--5-5-|
B|5-5--5-55-5--5-57-7--7-77-7--7-7-|
G|6-6--6-64-4--4-48-8--8-87-7--7-7-|
D|---------------------------------|
A|---------------------------------|
E|---------------------------------|x2

2nd part

e|-5-5-4-4-7-7-5-5|
B|-5-5-5-5-7-7-7-7|
G|-6-6-4-4-8-8-7-7|
D|----------------|
A|----------------|
E|----------------|x2

e|0---------------|
B|0---------------|
G|1---------------|
D|2---------------|
A|2---------------|
E|0---------------|(wait for the horns to be finished then repeat)
_____________________________________________________________________________
Chorus (1st part)

e|5--5--552--2--225--5--554--4--4-|
B|5--5--553--3--335--5--555--5--5-|
G|6--6--662--2--226--6--664--4--4-|
D|--------------------------------|
A|--------------------------------|
E|--------------------------------|x2

2nd part

e|-----------------|
B|-----------------|
G|6---6---6--11-10-|
D|7---7---7--12-11-|
A|7---7---7--12-11-|
E|5---5---5--10-9--|x3

e|0---------------|
B|0---------------|
G|1---------------|
D|2---------------|
A|2---------------|
E|0---------------|


Related for Keasby Nights tab
×
Keasby Nights