Guitaretab - guitar tabs
Song name
# A B C D E F G H I J K L M N O P Q R S T U V W X Y Z

Strokes - Mercy Mercy Me tab

INTRO
Both Guitars
e-2222-22-22-222-2222-22-22-222---3333-33-33-333-3333-33-33-333-|
B---------------------------------------------------------------|
G---------------------------------------------------------------|
D---------------------------------------------------------------|
A---------------------------------------------------------------|
E---------------------------------------------------------------|


VERSE 1
Both Guitars x2
e-5555-55-55-555-5555-55-55-555---6666-66-66-666-6666-66-66-666-|
B-6666-66-66-666-6666-66-66-666---6666-66-66-666-6666-66-66-666-|
G-7777-77-77-777-7777-77-77-777---------------------------------|
D---------------------------------------------------------------|
A---------------------------------------------------------------|
E---------------------------------------------------------------|

e-3333-33-33-333---3333-33-33-3333---3333-33-33-333---3333-33-33-3333-|
B-4444-44-44-444---4444-44-44-4444---4444-44-44-444---4444-44-44-4444-|
G---------------------------------------------------------------------|
D---------------------------------------------------------------------|
A---------------------------------------------------------------------|
E---------------------------------------------------------------------|


SOLO 1
Guitar 1
e--------13---------------------------13-11-15-------15----13----------------|
B-15~-13----15~---13-15-13-13h15-11~------------13-------15------------------|
G----------------------------------------------------------------15-12-------|
D----------------------------------------------------------------------15-13-|
A----------------------------------------------------------------------------|
E----------------------------------------------------------------------------|

e--------|
B--------|
G--------|
D--------|
A-15\\\--|
E--------|

Guitar 2
e-5555-55-55-555-5555-55-55-555---6666-66-66-666-6666-66-66-666-|
B---------------------------------------------------------------|
G---------------------------------------------------------------|
D---------------------------------------------------------------|
A---------------------------------------------------------------|
E---------------------------------------------------------------|

e-3333-33-33-333-3333-33-33-333---5555-55-55-555-5555-55-55-555-|
B---------------------------------------------------------------|
G---------------------------------------------------------------|
D---------------------------------------------------------------|
A---------------------------------------------------------------|
E---------------------------------------------------------------|


VERSE 2
Both Guitars
e-8-8-8-8--8-8--8-8--8-8-8--8-8-8-8--8-8--8-8--8-8-8---9999-99-99-999-9999-99-99-999-----|
B-9-9-9-9--9-9--9-9--9-9-9--9-9-9-9--9-9--9-9--9-9-9---9999-99-99-999-9999-99-99-999-----|
G-10101010-1010-1010-101010-10101010-1010-1010-101010------------------------------------|
D----------------------------------------------------------------------------------------|
A----------------------------------------------------------------------------------------|
E----------------------------------------------------------------------------------------|

e-6666-66-66-666-6666-66-66-666---6666-66-66-666-6666-66-66-666-|
B-7777-77-77-777-7777-77-77-777---7777-77-77-777-7777-77-77-777-|
G---------------------------------------------------------------|
D---------------------------------------------------------------|
A---------------------------------------------------------------|
E---------------------------------------------------------------|
[ Tab from: http://www.guitaretab.com/s/strokes/178491.html ]
Guitar 1
e--------11-11-11h13-9-|
B----------------------|
G-13~-10---------------|
D----------------------|
A----------------------|
E----------------------|

e-----------------------------------------|
B-14-16-14--------------------------------|
G----------15-13--------------------------|
D----------------15-13--------------------|
A----------------------15-12-10-12-8-6-4--|
E-----------------------------------------|

Guitar 2
e-8-8-8-8--8-8--8-8--8-8-8--8-8-8-8--8-8--8-8--8-8-8---9999-99-99-999-9999-99-99-999-----|
B-9-9-9-9--9-9--9-9--9-9-9--9-9-9-9--9-9--9-9--9-9-9---9999-99-99-999-9999-99-99-999-----|
G-10101010-1010-1010-101010-10101010-1010-1010-101010------------------------------------|
D----------------------------------------------------------------------------------------|
A----------------------------------------------------------------------------------------|
E----------------------------------------------------------------------------------------|

e-6666-66-66-666-6666-66-66-666---6666-66-66-666-6666-66-66-666-|
B-7777-77-77-777-7777-77-77-777---7777-77-77-777-7777-77-77-777-|
G---------------------------------------------------------------|
D---------------------------------------------------------------|
A---------------------------------------------------------------|
E---------------------------------------------------------------|


SOLO 2
Guitar 1
e-----------------------------------------------------------------------|
B-----------------------------------------------------------------------|
G---------------------------------------------------14h19-14h18-14h16---|
D-11h12-11h12-11/14/15----------14-14h15-12-----------------------------|
A----------------------12-14-16---------------12-14---------------------|
E-----------------------------------------------------------------------|

e--------------------------------------------------------------------------------|
B------------------14b------------------10h12p10-(x12)---------------------------|
G-------------14-------16-14--------------------------------------------------14-|
D-12h14-14-16----------------14-----------------------------------14-14-12-14----|
A-------------------------------12-15--------------------12-14-16----------------|
E--------------------------------------------------------------------------------|

Guitar 2
e-9-9-9-9--9-9--9-9--9-9-9--9-9-9-9--9-9--9-9--9-9-9--|
B-10101010-1010-1010-101010-10101010-1010-1010-101010-|
G-----------------------------------------------------|
D-----------------------------------------------------|
A-----------------------------------------------------|
E-----------------------------------------------------|

e-10101010-1010-1010-101010-10101010-1010-1010-101010-|
B-10101010-1010-1010-101010-10101010-1010-1010-101010-|
G-----------------------------------------------------|
D-----------------------------------------------------|
A-----------------------------------------------------|
E-----------------------------------------------------|

e-7777-77-77-777-7777-77-77-777---7777-77-77-777-7777-77-77-777-|
B-8888-88-88-888-8888-88-88-888---8888-88-88-888-8888-88-88-888-|
G---------------------------------------------------------------|
D---------------------------------------------------------------|
A---------------------------------------------------------------|
E---------------------------------------------------------------|


OUTRO
Both Guitars
e---------------------------------------------------------|
B---------------------------------------------------------|
G---------------------------------------------------------|
D-7-(x16)-9-(x8)-10-(x8)-12-(x24)-1010-88---7(x24)-----10-|
A---------------------------------------------------88----|
E---------------------------------------------------------|
Related for Mercy Mercy Me tab
Advertisement will be closed in 10 seconds