Strokes - Taken For A Fool tab

------------------------------------------------------------------------------
			     Taken For A Fool - The Strokes - Angles

Just tried figuring this out, could well be wrong.

-------------------------------------------------------------------------------
Tabbed by: Mark W
Email: -

Tuning: Standard


e|---------6-5-3-5-1-33---3-------1-3----------1-------6-5-3-5-1-33----------|
B|-3---1-3--------------------1-3-----3-3-1*-------1-3-----------------------|
G|---------------------------------------------------------------------------|
D|---------------------------------------------------------------------------|
A|---------------------------------------------------------------------------|
E|---------------------------------------------------------------------------|

Then it goes right into some kinda (what I think is a) chromatic crawl(?) thing from 
what I think is the C at the 8th fret of the low E to the 9th fret E note on the G 
string... something like this perhaps:

e|---------------------------------------------------------------------------|
B|---------------------------------------------------------------------------|
G|-----------------------------6-7-8-9---------------------------------------|
D|--------------------7-8-9-10-----------------------------------------------|
A|-----------7-8-9-10--------------------------------------------------------|
E|-8-9-10-11-----------------------------------------------------------------|
Tap to rate this tab
 
# A B C D E F G H I J K L M N O P Q R S T U V W X Y Z