Guitaretab - guitar tabs
Song name
# A B C D E F G H I J K L M N O P Q R S T U V W X Y Z

Submersed - Parallelism tab

Submersed
Parallelism
Tabbed by Jhenri
Drop D

Intro                     
Distortion              Strumming not shown
E|-----------------------------------------------------------------|
B|-----------------------------------------------------------------|
G|------------7/9-9-9/11------7/9/7--11/12/11------7/9-9/7---------|
D|--xx--xx-0---------------5--------------------0-------------9-7--|
A|--xx--xx-0--5/7-7-7/9----5--5/7/5---9/10/9----0--5/7-7/5----9-7--|
D|--xx--xx-0---------------5--------------------0-------------9-7--|

Verse
Clean
E|-----------------|        
B|-----------------|        
G|-------------7---| 8xs    
D|----7--7--7----7-|        
A|--5--5--5--5--5--|        
D|-----------------|        

E|-------------------------------------------------------|
B|-------------------------------------------------------|
G|---4--4-----6-6-----7-7--7------4-4-----6-6-----7--7---|
D|--4----4---6---6---7---7--7----4---4---6---6---7----7--|
A|-2--2-----4--4----5--5--5--5--2--2----4--4----5--5---5-|
D|-------------------------------------------------------|

PreChorus
Distortion
E|--------------------------|
B|--------------------------|
G|-7/9-9-9-9/11-11-11-11/12-|
D|--------------------------|
A|-5/7-7-7-7/9--9--9--9/10--|
D|--------------------------|

Chorus
Distortion
E|-------------------------------------------------------------------|
B|-------------------------------------------------------------------|
G|-----7/9-9-9/11-11-------7/9/7--11/12/11---------7/9--9/7----------|  
D|00-------------------55----------------------00-------------55--99-|  
A|00---5/7-7-7/9--9----55--5/7/5---9/10/9------00--5/7--7/5---55--99-|
D|00-------------------55----------------------00-------------55--99-|

E|-----------------------------------------------------------------|
B|-----------------------------------------------------------------|
G|----7/9-9-9/11-11--------7/9/7--11/12/11---------7/9--9/7--------|  
D|00-------------------55----------------------00-------------9-7--|
A|00--5/7-7-7/9--9-----55--5/7/5---9/10/9------00--5/7--7/5---9-7--|
D|00-------------------55----------------------00-------------9-7--|


Verse
Clean
E|------------------|        
B|------------------|        
G|--------------7---| 8xs    
D|----7--7--7-----7-|        
A|--5--5--5--5---5--|        
D|------------------|   
[ Tab from: http://www.guitaretab.com/s/submersed/78776.html ]
E|-------------------------------------------------------|
B|-------------------------------------------------------|
G|---4--4-----6-6-----7-7--7------4-4-----6-6-----7--7---|
D|--4----4---6---6---7---7--7----4---4---6---6---7----7--|
A|-2--2-----4--4----5--5--5--5--2--2----4--4----5--5---5-|
D|-------------------------------------------------------|

PreChorus
Distortion
E|--------------------------|
B|--------------------------|
G|-7/9-9-9-9/11-11-11-11/12-|
D|--------------------------|
A|-5/7-7-7-7/9--9--9--9/10--|
D|--------------------------|     

Chorus
Distortion
E|-------------------------------------------------------------------|
B|-------------------------------------------------------------------|
G|-----7/9-9-9/11-11-------7/9/7--11/12/11---------7/9--9/7----------|  
D|00-------------------55----------------------00-------------55--99-|  
A|00---5/7-7-7/9--9----55--5/7/5---9/10/9------00--5/7--7/5---55--99-|
D|00-------------------55----------------------00-------------55--99-|

E|-------------------------------------------------------------------|
B|-------------------------------------------------------------------|
G|----7/9-9-9/11-11--------7/9/7--11/12/11---------7/9--9/7----------|  
D|00-------------------55----------------------00-------------99-77--|
A|00--5/7-7-7/9--9-----55--5/7/5---9/10/9------00--5/7--7/5---99-77--|
D|00-------------------55----------------------00-------------99-77--|

Bridge Build up
Distortion
E|--------------------|
B|--------------------|
G|--------------------|
D|--99-77-99-11-12-14-|
A|--99-77-99-11-12-14-|
D|--99-77-99-11-12-14-|

Bridge
DIstortion
E|-------------------|
B|-------------------|
G|-------------------|
D|-00-55-00-77-55-00-|
A|-00-55-00-77-55-00-|
D|-00-55-00-77-55-00-|

Chorus/Outro
Distortion Slight variaton   
E|-------------------------------------------------------------------|
B|-------------------------------------------------------------------|
G|-----7/9-9-9/11-11-------7/9/7--11/12/11---------7/9--9/7----------|  
D|00-------------------55----------------------00-------------55--99-|  
A|00---5/7-7-7/9--9----55--5/7/5---9/10/9------00--5/7--7/5---55--99-|
D|00-------------------55----------------------00-------------55--99-|

E|-------------------------------------------------------------------|
B|-------------------------------------------------------------------|
G|----7/9-9-9/11-11--------7/9/7--11/12/11---------7/9--9/7----------|  
D|00-------------------55----------------------00-------------99-77--|
A|00--5/7-7-7/9--9-----55--5/7/5---9/10/9------00--5/7--7/5---99-77--|
D|00-------------------55----------------------00-------------99-77--|


Related for Parallelism tab