Song name
# A B C D E F G H I J K L M N O P Q R S T U V W X Y Z

Suicide Machines - Red Flag tab

----------------------------------------------------------------------------
			     The Red Flag - Suicide Machines
----------------------------------------------------------------------------
Tabbed by:aleckillsscobra
Email:adkband@yahoo.com

Tuning:Standard

Intro/Verse
e|-------------------------------------------------------------------------|
B|-------------------------------------------------------------------------|
G|-------------8-8-8-6-6-6-6-6---------------------------------------------|
D|-4-2-2-2-2-2-8-8-8-6-6-6-6-6---------------------------------------------|
A|-4-2-2-2-2-2-6-6-6-4-4-4-4-4---------------------------------------------|
E|-2-0-0-0-0-0-------------------------------------------------------------|
Pm     x x x x x x x x x x x x
Pre-Chorus
e|-------------------------------------------------------------------------|
B|-------------------------------------------------------------------------|
G|-------------------------------------------------------------------------|
D|-5-5-5-5-6-6-6-6-7-7-7-7-8-8-8-8-----------------------------------------|
A|-5-5-5-5-6-6-6-6-7-7-7-7-8-8-8-8-----------------------------------------|
E|-3-3-3-3-4-4-4-4-5-5-5-5-6-6-6-6-----------------------------------------|

Chorus
e|-------------------------------------------------------------------------|
B|-------------------------------------------------------------------------|
G|--------------------------4----------------------------------------------|
D|-2-2-2-2-2-2-2-2-2-2-2-3--4----------------------------------------------|
A|-2-2-2-2-2-2-2-2-2-2-2-3--2----------------------------------------------|
E|-0-0-0-0-0-0-0-0-0-0-0-1-------------------------------------------------|
Pm     x x     x x   x x


Interlude
e|-------------------------------------------------------------------------|
B|-------------------------------------------------------------------------|
G|-------------------------------------------------------------------------|
D|-2-2-2-2-2-2-2-2--5-5-5-5-5-5-5-5----------------------------------------|
A|-2-2-2-2-2-2-2-2--5-5-5-5-5-5-5-5----------------------------------------|
E|-0-0-0-0-0-0-0-0--3-3-3-3-3-3-3-3----------------------------------------|

Interlude 2
e|-------------------------------------------------------------------------|
B|-------------------------------------------------------------------------|
G|--------------4----------------------------------------------------------|
D|-2--------3---4----------------------------------------------------------|
A|-2--------3---2----------------------------------------------------------|
E|-0--------1--------------------------------------------------------------|

Outro
e|-------------------------------------------------------------------------|
B|-------------------------------------------------------------------------|
G|-88888888888888888-------------------------------------------------------|
D|-88888888888888888-------------------------------------------------------|
A|-66666666666666666-------------------------------------------------------|
E|-------------------------------------------------------------------------|



Intro        x4
Pre-Chorus   x2
Chorus       x4
Intro        x4
Pre-Chorus   x2
Chorus       x4
Interlude    x4
Chorus       x4
Interlude 2  x4
Chorus       x4
Outro
Chorus       x4
Interlude 2
End on E5   

| /  slide up
| \  slide down
| h  hammer-on
| p  pull-off
| ~  vibrato
| +  harmonic
| x  Mute note
============================================================================
Tap to rate this tab
# A B C D E F G H I J K L M N O P Q R S T U V W X Y Z