Song name
# A B C D E F G H I J K L M N O P Q R S T U V W X Y Z

Suicide Machines - Drunken Jocks tab

e: Thu, 19 Mar 1998 12:10:54 -0600 (CST)
From: Samuel Fletcher IV Barker 
Subject: drunken jocks by suicide machines 

song:drunken jocks
artists:suicide machines
album:green world
tabbed by:samuel barker

intro:
A-/-7-5-4-------4-7-5-/
E-/-------7-5-7-------/

1st and 3rd part of the song:

D  A-/-7-5-4-------4-7-5-/ D G-/-7-6-5---6-4---4-/
   E-/-------7-5-7-------/   A-/-------7-----7---/

2nd part of song:(verse)  D  As  Gs

D
fucking drunk

chords used:
    D   As  Gs
e-/---/---/---/
B-/---/-5-/-3-/
G-/-7-/-6-/-4-/
D-/-7-/-7-/-5-/
A-/-5-/---/---/
E-/---/---/---/
Tap to rate this tab
# A B C D E F G H I J K L M N O P Q R S T U V W X Y Z