Guitaretab - guitar tabs
Song name
# A B C D E F G H I J K L M N O P Q R S T U V W X Y Z

Suicide Machines - Hands Tied tab

Intro - C# minor
  C#m
E-4--
B-5--
G-6--
D-6--
A-4--
E----

Chorus - B E
  B  E
E-7--7---|
B-7--9---|
G-8--9---|
D-9--9---|
A-9--7---|
E-7------|

Verse - E B
   E  B
E--7--7---|
B--9--7---|
G--9--8---|
D--9--9---|
A--7--9---|
E-----7---|

Bridge ('Can't find enough time for myself....') - E B E F#
    E  B  E  F#
E---7--7--7--9----|
B---9--7--9--11---|
G---9--8--9--11---|
D---9--9--9--11---|
A---7--9--7--9----|
E------7----------|

Solo
E------------------------------12-12-11----|
B---------------------------------------12-|
G-------8-11-11-9---8-----8-9-11-----------|
D-999-11----------11-9-99------------------|
A------------------------------------------|
E------------------------------------------|
[ Tab from: http://www.guitaretab.com/s/suicide-machines/67954.html ]
E-----------------------------------------|
B--12-11-9---12-11-9---12-11-9--12-11-9---|
G----------11--------11-------11-------11-|
D-----------------------------------------|
A-----------------------------------------|
E-----------------------------------------|

E----------------------------------9h11p9--------------|
B-12-11-9----12-11-9----12-11-9-----------11p9-12~~~~~-|
G---------11---------11---------11---------------------|
D------------------------------------------------------|
A------------------------------------------------------|
E------------------------------------------------------|


Song Order
==========


Intro
Chorus
Verse
Chorus
Verse
Chorus
Bridge ('Can't find enough time for myself....')
Solo
Verse
Verse
Chorus
Chorus
End on B (let ring)
  B
E-7--
B-9--
G-9--
D-9--
A-7--
E----
Related for Hands Tied tab
Advertisement will be closed in 10 seconds