Song name
# A B C D E F G H I J K L M N O P Q R S T U V W X Y Z

Sun Kil Moon - Tiny Cities Made Of Ashes tab

-------------------------------------------------------------------------------
			     TINY CITIES MADE OF ASHES - Sun Kil Moon
-------------------------------------------------------------------------------
Tabbed by: shadley15
Email: shadley15@hotmail.com

Tuning: Standard

Capo Fret 1
This part is the basic guitar line played throughout the whole song.
There are some tweaks here and there brought in by another guitar or
sometimes a toy piano/bell set, but this would get you through at an
open mic or something. Love the original, of course, but Sun Kil Moon
does some of the best covers I've ever heard, so I thought I'd put this
up.



e|0-----------1p0--------------1p0-------------1p0-------------1p0-----------|
B|------1---------------1---------------1---------------1--------------------|
G|----------0---------------0---------------0---------------0----------------|
D|---------------------------------------------------------------------------|
A|1---1---1-------3---3---3-------0---0---0-------1---1---1------------------|
E|---------------------------------------------------------------------------|

Use that first part only for the very first time (notice the simultaneous
pick on the A and e strings for the very first attack).
For the rest of the song use this...

e|-------------1p0--------------1p0-------------1p0-------------1p0------------|
B|:------1---------------1---------------1---------------1--------------------:|
G|-----------0---------------0---------------0---------------0-----------------|
D|-----------------------------------------------------------------------------|
A|:1---1---1-------3---3---3-------0---0---0-------1---1---1------------------:|
E|-----------------------------------------------------------------------------|

And that's it. Hope you like it, and if you haven't heard this version I highly 
recommend it. Cheers.
Tap to rate this tab
 
# A B C D E F G H I J K L M N O P Q R S T U V W X Y Z