Song name
# A B C D E F G H I J K L M N O P Q R S T U V W X Y Z

Superchick - Its On tab

Superchick
It's On
Beauty From Pain

Intro:
E|----------------------------------------------------|
B|----------------------------------------------------|
G|----------------------------------------------------|
D|--7-7-7-7-7-7-7-7-7-7-7-7-7-7-7-7-6-6-6-6-6-6-6-6-6-|
A|--7-7-7-7-7-7-7-7-7-7-7-7-7-7-7-7-6-6-6-6-6-6-6-6-6-|
E|--5-5-5-5-5-5-5-5-5-5-5-5-5-5-5-5-4-4-4-4-4-4-4-4-4-|

E|----------------------------|
B|----------------------------|
G|----------------------------|
D|--11--11--11--11--11--11-11-|
A|--11--11--11--11--11--11-11-|
E|---9---9---9---9---9---9--9-|

Verse: palm muted---16 hits each note
E|----------|
B|----0-2-0-|
G|--2-------|
D|----------|
A|----------|
E|----------|

E|----------|
B|----0-2-5-|
G|--2-------|
D|----------|
A|----------|
E|----------|

Chorus: 16 hits each note
E|--------------|
B|--------------|
G|--------------|
D|--7--6--4--12-|
A|--7--6--4--12-|
E|--5--4--2--10-|

After Chorus:
E|-------|
B|-------|
G|-----6-|
D|--7--6-|
A|--7--4-|
E|--5----|

Break 1:
E|--------------------------------------------|
B|--2-2-3-3-5--2-3-3-5-5--7-2-2-----3-3-2-0-2-|
G|------------------------------2-2-----------|
D|--------------------------------------------|
A|--------------------------------------------|
E|--------------------------------------------|

Break 2:
E|----------------------------------|
B|--2-2-2-2-0-0-0-0-2-2-2-2-3-3-3-3-|
G|----------------------------------|
D|----------------------------------|
A|----------------------------------|
E|----------------------------------|

Order:
Intro 4x
Verse 1x
Chorus 2x
After Chorus 2x
Verse 1x
Chorus 2x
After Chorus 2x
Break1 4x
Chorus 1x
Break2 1x
Chorus 2x

Any Questions? Email me at Coldfry1@aol.com... strumming is easy... great song to
 play... Have Fun!
Tap to rate this tab
 
# A B C D E F G H I J K L M N O P Q R S T U V W X Y Z