Song name
# A B C D E F G H I J K L M N O P Q R S T U V W X Y Z

Superchick - High School tab

I looked this song up, and couldn't find anything EVEN CLOSE to the song, So I 
tabed it best I could.
IF you wanna corect it be my guest, or e-mail me at Samuelmac50@hotmail.com


Intro


G|-8-8---------------3----8-8---------------3----8-8----------------3----8-8----------------3--|
D|-8-8--6-6--3-3-xxx-3----8-8--6-6--3-3-xxx-3----8-8--6-6---3-3-xxx-3----8-8--6-6---3-3-xxx-3--|
A|-6-6--6-6--3-3-xxx-1----6-6--6-6--3-3-xxx-1----1-1--6-6---3-3-xxx-1----1-1--6-6---3-3-xxx-1--|
E|------4-4--1-1-xxx-----------4-4--1-1-xxx-----------4-4---1-1-xxx-----------4-4---1-1-xxx----|


G|--------------3--------------|
D|-3---5--7--4--3--3---5--7--4-|
A|-3---5--7--4--1--3---5--7--4-|
E|-3---5--7--4-----3---5--7--4-|

vERSE 1 and Verse 2, Heavy Palm mute On Every other note, it'll take a little work. Just
into a stedy rythem
and Pateren and it will work.


G|---------------------------------------------------------------------------------|
D|---------------------------------------------------------------------------------|
A|---3---3---3---3---3---3---3---3---3---3---3---3---3---3---3---3---3---3---3-----|
E|-3-3-3-3-3-3-3-3-3-3-3-3-3-3-3-3-3-3-3-3-3-3-3-3-3-3-3-3-3-3-3-3-3-3-3-3-3-3-3---|
 pm  pm  pm  pm   pm   pm   pm   pm   pm  pm  pm  pm  pm  pm  pm  pm  pm  pm  pm

pm  pm  pm  pm pm
-----------------------|
-----------------------|
3---3---3---3---3---3--|
3-3-3-3-3-3-3-3-3-3-3--|

G|-------------------------------------------------|
D|--------------------------xx-777~~555~~333~~-----|
A|---3---3---3---3---3---3--xx-777~~555~~333~~-----|
E|-3-3-3-3-3-3-3-3-3-3-3-3--xx-777~~555~~333~~-----|
 pm  pm  pm  pm  pm  pm

Chorus: 4 Times

G|-1111-----------------------|
D|-3333--5555--7777--3--x3--3-|
A|-3333--5555--7777--3--x3--3-|
E|-------5555--5555--3--x3--3-|
Tap to rate this tab
# A B C D E F G H I J K L M N O P Q R S T U V W X Y Z