Surfer Blood - Anchorage tab

# tabbed by Collin B.

"Anchorage" by Surfer Blood

Here is most of the wonderful song. I didn't bother to tab out some of the little 
fills that occur between some of the transitions nor the solo at the end.  
Corrections are very welcome!

Intro
e|-------------------------------------------------------| 
B|-------------------------------------------------------| 
G|------------------------------------------------o------| 
D|-7--7----5-----7--7---10--10-10-10-10--5--5-5----------|
A|-7--7----5-----7--7---10--12-10-12-10--5--7-7---o------| 
E|-10-8----8-----10-8---8---8--8--8--8---8--8-8----------| 

e|-----------------------------------------| 
B|-----------------------------------------| 
G|-----------------------------o-----------| 
D|--10--10-10-10-10---5--5-5------x3-------| 
A|--10--12-10-12-10---5--7-7---o-----------| 
E|--8---8--8--8--8----8--8-8---------------| 

Verse 1
e|-------------------------------------------------------| 
B|-------------------------------------------------------| 
G|------------------------------------------------o------| 
D|-7--7----5-----7--7---10--10-10-10-10--5--5-5------x4--|
A|-7--7----5-----7--7---10--12-10-12-10--5--7-7---o------| 
E|-10-8----8-----10-8---8---8--8--8--8---8--8-8----------|
 
e|-----------------------------------------| 
B|-----------------------------------------| 
G|-----------------------------o-----------| 
D|--10--10-10-10-10---5--5-5------x3-------| 
A|--10--12-10-12-10---5--7-7---o-----------| 
E|--8---8--8--8--8----8--8-8---------------|

Bridge 
e|------------------------------ | |---------------------------------|
B|----------------------------3- | |----------------------------3----|
G|----------------------------0-o| |o---------------------------0--o-|
D|-7-7--9-9-9-9--------------2- | |---2-1----------------------2----|
A|-7--7----------7-7------5h7-2-o| |o------7777(x16 total)-5h7--2-o-|
E|-10-8---------------5h7-----1- | |-------------------5h7------1----|

Verse 2
e|-------------------------------------------------------| 
B|-------------------------------------------------------| 
G|------------------------------------------------o------| 
D|-7--7----5-----7--7---10--10-10-10-10--5--5-5------x4--|
A|-7--7----5-----7--7---10--12-10-12-10--5--7-7---o------| 
E|-10-8----8-----10-8---8---8--8--8--8---8--8-8----------|
 
e|-----------------------------------------| 
B|-----------------------------------------| 
G|-----------------------------o-----------| 
D|--10--10-10-10-10---5--5-5------x3-------| 
A|--10--12-10-12-10---5--7-7---o-----------| 
E|--8---8--8--8--8----8--8-8---------------|


Bridge 2
e|-------------------------------| 
B|-------------------------------| 
G|-0--1-0-1-3------------------o-| 
D|-0--0-0-0-0--4-4-4-2-2-2-------| x8 
A|-3--3-3-3-3--3-3-3-3-3-3-----o-|
E|-3--3-3-3-3--3-3-3-3-3-3-------|



Verse 3
e|--------------------------------| 
B|--------------------------------| 
G|-------------------------o------| 
D|-2---------2-0-2-0-2-2-2--------| 
A|-2-5-2-5/7-2-0-2-0-2-2-2-o------|
E|-0---------0-0-0-0-3-3-3--------| 

This riff repeats for the rest of the song throughout the solo and all
Tap to rate this tab
 
# A B C D E F G H I J K L M N O P Q R S T U V W X Y Z