Song name
# A B C D E F G H I J K L M N O P Q R S T U V W X Y Z

Surfer Blood - I Was Wrong tab

I was wrong, by Surfer Blood

intro guitar 1 (x6)

e|-----------------------------------------------------------------------------|
B|-----------------------------------------------------------------------------|
G|---9---9---9---9--7----------------------------------------------------------|
D|-----7---7---7---------------------------------------------------------------|
A|-----------------------------------------------------------------------------|
E|-----------------------------------------------------------------------------|

intro guitar 2 (x2), then C, E, F palm muted

e|-------------------------------------------------------------------------------|
B|-------------------------------------------------------------------------------|
G|-------------------------------------------------------------------------------|
D|-------------------------------------------------------------------------------|
A|------10--10--3--3--2--2--2--2-------------------------------------------------|
E|----8---8---1--1--0--0--0--0---------------------------------------------------|

intro guitar 1 part 2 (x2)

e|------------------------------------------------------------------------------|
B|------------------------------------------------------------------------------|
G|---9---------------------12/9--9-h10-9----------------------------------------|
D|-----10--9------------------------------10-9----------------------------------|
A|------------11-12/14 15----------------------11-12----------------------------|
E|------------------------------------------------------------------------------|

Verse:

C                     E                F              C
keeping up replies when im on the run
C                     E                F                C
speak to me in rhymes speak to me in code
C                       E                 F               C
what have you done to me lately my dear
C                        E                   F
if youre still a friend let me know

(pattern repeats, there is a second guitar picking the high notes of these chords)

staying up all night with my ball and chain
all the bridges burn, speak to yellow flame
winning and losing or pushing away
if i fell apart would you stay

Chorus

C                       Am             E               F
and our plans riddled with liars and thieves
C                        Am             E              F
you and i were taking the path we know
C             Am              E            F
all along, i was wrong i was wrong
C                        Am              F
and moving on with or without


(intro guitar 1 part 2)

Verse:

cymbals shake my ears in the dead of night
smoke and mirror clubs with revolving lights
keeping good company let it all go
when im finally home ill let you know

Chorus

C                       Am             E               F
and our plans riddled with liars and thieves
C                        Am             E              F
you and i were taking the path we know
C             Am              E            F
all along, i was wrong i was wrong
C                        E             F
and moving on with or without


Bridge:

e|-----------------------------------------------------------------------------|
B|-----------------------------------------------------------------------------|
G|---9---9---9---9--7----------------------------------------------------------|
D|-----7---7---7---------------------------------------------------------------|
A|-----------------------------------------------------------------------------|
E|-----------------------------------------------------------------------------|

i was wrong, no i was wrong, i was wrong, no i was wrong


Chorus

C                       Am             E               F
and our plans riddled with liars and thieves
C                        Am             E              F
you and i were taking the path we know
C             Am              E            F
all along, i was wrong i was wrong
C                        E             F
and moving on with or without

End

e|-------------------------------------------------------------------|
B|-------------------------------------------------------------------|
G|---9---------------------12/9--------------------------------------|
D|-----10--9---------------------------------------------------------|
A|------------11-12/14 15--------------------------------------------|
E|-------------------------------------------------------------------|
Tap to rate this tab
 
# A B C D E F G H I J K L M N O P Q R S T U V W X Y Z