Song name
# A B C D E F G H I J K L M N O P Q R S T U V W X Y Z

Swingin Utters - Next In Line tab

Artist: Swingin Utters
Song: The Next In Line
Tuning: Standard (E,A,D,G,B,E)
Tabbed by: J@yM3 D@NG3R





INTRO

|------------------------------|
|-4-4-5-4-2---2-2-4-0---0-4-4-2|
|------------------------------|
|------------------------------|
|------------------------------|
|------------------------------|


BORN ON THE SOUTH SIDE AND YOUR LIVING ALONE
clean
|---------------0-0-|
|---------------0-0-|
|-444444--------1-1-|
|-444444-444444-2-2-|
|-222222-444444-2-2-|
|--------222222-0-0-|

FOUR WALL AND A ROOF BUT IT'S ALWAYS COLD
clean
|---------------0-0-|
|---------------0-0-|
|-444444--------1-1-|
|-444444-444444-2-2-|
|-222222-444444-2-2-|
|--------222222-0-0-|

LOOK OUT THE WINDOW AND THERES NOTHING TO SEE BUT A RIOT TORN CITY AND THE DEATH OF YOUR COUNTRY
clean
|---------------0-0-|
|---------------0-0-|
|-444444--------1-1-|
|-444444-444444-2-2-|
|-222222-444444-2-2-|
|--------222222-0-0-|

AND NOW YOUR CHILLED TO THE BONE
clean                    clean
GUITAR 1                 GUITAR 2(PLAY THIS OVER GUITAR 1)
|------------------|     |-2-0-----2-0---------2-0-----------------|      
|------------------|     |-----4-0-----4h5p4-0-----4h5p4-0-4-5-4-0-|
|------------------|     |-----------------------------------------|
|-4-4-444444444444-|     |-----------------------------------------|
|-4-4-444444444444-|     |-----------------------------------------|
|-2-2-222222222222-|     |-----------------------------------------|


NO POSSESIONS TO CALL YOUR OWN
clean
|------------------|
|------------------|
|------------------|
|-2-2-222222222222-|
|-2-2-222222222222-|
|-0-0-000000000000-|

YET YOU CONTROL YOUR RAGE AND YOU RESIST THE CRIME CUZ YOUR THE NEXT IN LINE
clean
|-----------------------|
|-----------------------|
|---------------------4-|
|-22222222222222222---4-|
|-22222222222222222---2-|
|-00000000000000000-----|

Then repeat all of the above with distortion 2 times the lyrics are as followed:

1st Verse: born on the southside and your living alone! (LIVIN ALONE!)
           4 walls and a roof buts its always cold (ITS ALWAYS COLD!)
           Look out the window and theres nothing to see but a 
           riot torn city and the death of your country
           and your chilled to the bone
           with no possesions to call your own
           yet you control your rage and you resist the crime
           cuz your the next in line

2nd Verse: Out the back door and to the corner store (TO THE CORNER STORE!)
           all i want is a drink and nothin more (A DRINK AND NOTHIN MORE!)
           sit on the stoop and let the liquid sooth you pride befor you go
           inside
           and your chilled to the bone
           with no possesions to call your own
           yet you control your rae and you resist the crime cuz your the 
           next in line

THEN THE BRIDGE:

YOU CUT IN FRONT AND YOUR THE NEXT IN LINE
YOU NEVER THOUGH YOU'D LEED A LIFE OF CRIME
|----------------------------|
|----------------------------|
|-444444-777777-11----999999-|
|-444444-777777-11-X6-999999-|
|-222222-555555--9----777777-|
|----------------------------|

THEN THE SOLO:

|---------------------------------------------------------------------------|
|-12-9-7---77777-5p4h7-0-2-0-2h4-5-7-55-2-4-2-0000-2-0000-22----0-2-0-2h4-0-|
|---------------------------------------------------------------------------|
|---------------------------------------------------------------------------|
|---------------------------------------------------------------------------|
|---------------------------------------------------------------------------|

|-------------------------------|
|-0-2-0-2h4-0-2-2h4-5-7-55-4-5-4|
|-------------------------------|
|-------------------------------|
|-------------------------------|
|-------------------------------|

Last Verse:

FREEDOMS THE ONLY THING YOU NEED

|-------------------------|
|-------------------------|
|-5555555-----------------|
|-5555555-5555555-3333333-|
|-3333333-5555555-3333333-|
|---------3333333-1111111-|

BUT THE TRUTH IS SOMETHING FEW UNDERSTAND AN UNWELCOME REALITY

|-------------------------|
|-------------------------|
|-5555555-----------------|
|-5555555-5555555-3333333-|
|-3333333-5555555-3333333-|
|---------3333333-1111111-|

NOW ITS DARK AND ITS BLACK AND ITS SAD AND GONE YOU EXPRESS AND REPRESS THE THINGS GONE WRONG 

|---------------0-0-|
|---------------0-0-|
|-444444--------1-1-|
|-444444-444444-2-2-|
|-222222-444444-2-2-|
|--------222222-0-0-|

AND YOU WANNA BE THE MAN WHO RAN AWAY

|---------------0-0-|
|---------------0-0-|
|-444444--------1-1-|
|-444444-444444-2-2-|
|-222222-444444-2-2-|
|--------222222-0-0-|

AND YOU WISH YOU COULD GO BACK TO YESTERDAY

|---------------0-0-|
|---------------0-0-|
|-444444--------1-1-|
|-444444-444444-2-2-|
|-222222-444444-2-2-|
|--------222222-0-0-|

NOW HES IN HER ROOM

GUITAR 1                 GUITAR 2(PLAY THIS OVER GUITAR 1)
|------------------|     |-2-0-----2-0---------2-0-----------------|      
|------------------|     |-----4-0-----4h5p4-0-----4h5p4-0-4-5-4-0-|
|------------------|     |-----------------------------------------|
|-4-4-444444444444-|     |-----------------------------------------|
|-4-4-444444444444-|     |-----------------------------------------|
|-2-2-222222222222-|     |-----------------------------------------|

AND HES ABOUT TO LIE

|------------------|
|------------------|
|------------------|
|-2-2-222222222222-|
|-2-2-222222222222-|
|-0-0-000000000000-|

SO HE PULLS THE GUN AND HE SQUEEZE THE TRGGER AND LETS THE BULLETS FLY!

|------------------|
|------------------|
|------------------|
|-2-2-222222222222-|
|-2-2-222222222222-|
|-0-0-000000000000-|

REPEAT THIS TILL END OF SONG (FADEOUT)

|-------------|
|-------------|
|-44444XX-----|
|-44444XX4444-|
|-22222XX4444-|
|--------2222-|
Tap to rate this tab
# A B C D E F G H I J K L M N O P Q R S T U V W X Y Z