Song name
# A B C D E F G H I J K L M N O P Q R S T U V W X Y Z

Swingin Utters - Five Lessons Learned tab

this is everything up to when Johnny starts singing. i would say this song is somewhere 
novice and intermediate... STRICTLY because of its speed.

Tuning: standard -- E.A.D.G.B.e


|-------------------------------------------------------------------------------|
|-------------------------------------------------------------------------------|
|-------------------------------------------------------------------------------|
|--9-9-----9-9-----9-9-----9-9-----9-9-----9-9-----9-9-----9--------------------|
|--7-7-----7-7-----7-7-----7-7-----7-7-----7-7-----7-7-----7--------------------|
|-------------------------------------------------------------------------------|


|-------------------------------------------------------------------------------|
|-------------------------------------------------------------------------------|
|-------------------------------------------------------------------------------|
|--9xx-----7xx-----5xx-----444--X4-----------------5-7------9-7-----------------|
|--7xx-9xx-5xx-7xx-3xx-5xx-222-------5-7-2222--X3--3-5-2222-7-5-2222------------|
|------7xx-----5xx-----3xx-----------3-5-0000----------0000-----0000------------|


|--12-10--------------12-10--------------12-10----------------------------------|
|--------12-11br------------12-11br------------12-11br-------------------10-12--|
|----------------12p9---------------12p9---------------12p9--12-11-9--12--------|
|-------------------------------------------------------------------------------|
|-------------------------------------------------------------------------------|
|-------------------------------------------------------------------------------|


| /  slide up
| \  slide down
| h  hammer-on
| p  pull-off
| ~  vibrato
| +  harmonic
| x  Mute note
Tap to rate this tab
# A B C D E F G H I J K L M N O P Q R S T U V W X Y Z