Song name
# A B C D E F G H I J K L M N O P Q R S T U V W X Y Z

Switchfoot - Gone tab

Help us improve GuitareTab! Take a short survey!
Gone: Switchfoot
The Beautiful Letdown

There's more than one guitar but I just have one part. You can make some cool stuff up 
you have two guitars.
Intro:
e---0------4----0----4-----0------4----0-----4--------------|
B---0------7----0----7-----0------7----0-----7--------------|
G-----------------------------------------------------------|
D-----------------------------------------------------------|
A-----------------------------------------------------------|
E-----------------------------------------------------------|

e--0-- can be played as e-----|
B--0--                  B--5--|
                        G--4--

Verse:
e-----0-------------------------------------------|
B-----0-------------------------------------------|
G-(1)--(1)-4--------------------------------------|
D--2----2--4---x12--------------------------------|
A--2----2--2--------------------------------------|
E--0----0-----------------------------------------|

Pre-Chorus:
e---------------------------------------------------------|
B---------------------------------------------------------|
G---2~--4~-2~--4~-4`--------------------------------------|
D---2~--4~-2~--4~-4`--------------------------------------|
A---0~--2~-0~--2~-2`--------------------------------------|
E---------------------------------------------------------|


Chorus:
e--------------------------------------------------------------------------|
B----------(5-5-5-55)-------(5-5-5-55)-------(5-5-5-55)---------(5-5-5-55)-|
G-(1)(1)---(4-4-4-44)--2--2-(4-4-4-44)---6-6-(4-4-4-44)----5--5-(4-4-4-44)-|
D--2--2----------------2--2--------------6-6---------------6--6------------|
A--2--2----------------0--0--------------4-4---------------3--3------------|
E--0--0--------------------------------------------------------------------|

Verse:
e-----0-------------------------------------------|
B-----0-------------------------------------------|
G-(1)--(1)-4--------------------------------------|
D--2----2--4---x12--------------------------------|
A--2----2--2--------------------------------------|
E--0----0-----------------------------------------|

Pre-Chorus:
e---------------------------------------------------------|
B---------------------------------------------------------|
G---2~--4~-2~--4~-4`--------------------------------------|
D---2~--4~-2~--4~-4`--------------------------------------|
A---0~--2~-0~--2~-2`--------------------------------------|
E---------------------------------------------------------|


Chorus:
e--------------------------------------------------------------------------|
B----------(5-5-5-55)-------(5-5-5-55)-------(5-5-5-55)---------(5-5-5-55)-|
G-(1)(1)---(4-4-4-44)--2--2-(4-4-4-44)---6-6-(4-4-4-44)----5--5-(4-4-4-44)-|
D--2--2----------------2--2--------------6-6---------------6--6---------x2-|
A--2--2----------------0--0--------------4-4---------------3--3------------|
E--0--0--------------------------------------------------------------------|

Verse:
e-----0-------------------------------------------|
B-----0-------------------------------------------|
G-(1)--(1)-4--------------------------------------|
D--2----2--4---x2---------------------------------|
A--2----2--2--------------------------------------|
E--0----0-----------------------------------------|

Bridge (we are not infinite):

e-------------------------------|
B-------------------------------|
G(1)(1)-(4)(4)-(6)(6)-s-o-l-o---| BE A MAN FIGURE OUT THE SOLO YOURSELF
D-2--2---5--5---7--7------------|
A-2--2---5--5---7--7------------|
E-0--0---3--3---5--5------------|

e---------------------------------------------------------|
B---------------------------------------------------------|
G(1)(1)-(4)(4)-(6)(6)---5--5--5--5------------------------|
D-2--2---5--5---7--7----5--5--5--5------------------------|
A-2--2---5--5---7--7----3--3--3--3------------------------|
E-0--0---3--3---5--5--------------------------------------|

Frank Sinatra, Al Pacino, Elvis and his Mom part:

-this part has some effects on it and some hammers and stuff that I'm not gonna worry about

e---------------------------------------------------------|
B---------------------------------------------------------|
G(1)(1)(1)-2--2--2--6--6--6--2--2--2----------------------|
D-2--2--2--2--2--2--6--6--6--2--2--2----------------------|
A-2--2--2--0--0--0--4--4--4--0--0--0----------------------|
E-0--0--0-------------------------------------------------|

Outro (fade out):

Chorus:
e--------------------------------------------------------------------------|
B----------(5-5-5-55)-------(5-5-5-55)-------(5-5-5-55)---------(5-5-5-55)-|
G-(1)(1)---(4-4-4-44)--2--2-(4-4-4-44)---6-6-(4-4-4-44)----2--2-(4-4-4-44)-|
D--2--2----------------2--2--------------6-6---------------2--2------------|
A--2--2----------------0--0--------------4-4---------------0--0------------|
E--0--0--------------------------------------------------------------------|

Thank You for choosing my tab above the rest email me with any questions or concerns: 
PEACE
Related for Gone tab