Guitaretab - guitar tabs
Song name
# A B C D E F G H I J K L M N O P Q R S T U V W X Y Z

System Of A Down - Chop Suey! tab

System Of A Down - Chop Suey! (Tabbed by Rich Bagnall)

Intro (acoustic guitar) 
--------------------------------------- 
--------------------------------------- 
--/5-5555---77777--44444---22222------- 
--/7-7777---99999--55555---44444------- 
--------------------------------------- 
--------------------------------------- 

Guitar 2 (comes in second time) 
----------------------------------------------------------------------
---------------------------------------------------------------------- 
---5---5---5-----7---7---7----4---4---4----2---2---2------------------ 
-----7---7---7-----9---9---9----5---5---5----4---4---4---------------- 
---------------------------------------------------------------------- 
---------------------------------------------------------------------- 

Guitar 3 (comes in third time) - all tremlo picking 
---------------------------------------------------------------------- 
---------------------------------------------------------------------- 
--15----17----14----19----19----17----20----19------------------------ 
---------------------------------------------------------------------- 
---------------------------------------------------------------------- 
---------------------------------------------------------------------- 

Heavy 
---------------------------------------------------------------------- 
---------------------------------------------------------------------- 
---------------------------------------------------------------------- 
----9-9-9-9---8-8-8-8----11-11-11-11----14-14-14-14-------------------
----9-9-9-9---8-8-8-8----11-11-11-11----14-14-14-14------------------- 
----7-7-7-7---6-6-6-6----9--9--9--9-----12-12-12-12------------------- 
x2 
---------------------------------------------------------------------- 
---------------------------------------------------------------------- 
---------------------------------------------------------------------- 
---5-5-5-5--4-4-4-4--7-7-7-7--9-9-9-9--------------------------------- 
---5-5-5-5--4-4-4-4--7-7-7-7--9-9-9-9---------------------------------
---3-3-3-3--2-2-2-2--5-5-5-5--7-7-7-7--------------------------------- 

Verse 
---------------------------------------------------------------------- 
---------------------------------------------------------------------- 
---------------------------------------------------------------------- 
--99 99999999-88------88888888-99-------------------------------------
--99 99999999-88------88888888-99-------------------------------------
--77 77777777-66------66666666-77-------------------------------------



Chorus (with other guitar doing the tremlo picking from intro) 
---------------------------------------------------------------------- 
---------------------------------------------------------------------- 
---5-------5--------7--------7--------4-------4-------2-------2------- 
-----7---7---7---5----9----9---9----9---5---5---5---5---4---4---4---4- 
-------7-------7--------10-------10-------7-------7-------5-------5--- 
----------------------------------------------------------------------

Outro

----------------------------------------------------------------------
----------------------------------------------------------------------
----2-----------5-----------------------------------------------------
----2-----3-----5------3----------------------------------------------
----0-----3-----3------3----------------------------------------------
----------3------------3----------------------------------------------
[ Tab from: http://www.guitaretab.com/s/system-of-a-down/22121.html ]
Related for Chop Suey! tab
Chop Suey! chords by System Of A Down