Guitaretab - guitar tabs
Song name
# A B C D E F G H I J K L M N O P Q R S T U V W X Y Z

System Of A Down - Chop Suey! tab

My e-mail: zzzzz_22@hotmail.com

This is my first tab, hope itís not too bad.
1)
D----------------------------------------------------------------------------
A----------------------------------------------------------------------------
F--5----5-----5----7----7----7----4----4----4----2----2----2-----------------
C-----7----7----7----9----9----9----5----5----5---------3--------------------
G----------------------------------------------------------------------------
C----------------------------------------------------------------------------
2)
D----------------------------------------------------------------------------
A----------------------------------------------------------------------------
F---5----------7-----------4----------2--------------------------------------
C---7---(x8)---9----(x8)---5----(x8)--3---(x8)-------------------------------
G---0----------0-----------0----------0--------------------------------------
C----------------------------------------------------------------------------
3)
D---------------------------------------------------------------------------
A----------------------------------------------------------------------------
F---5----------7-----------4-----------10------------------------------------
C---7---(x8)---9---(x8)----5---(x8)----12---(x8)-----------------------------
G---0----------0-----------0-----------0-------------------------------------
C----------------------------------------------------------------------------
4)
D--------------------------------
A--------------------------------
F--------------------------------
C---7----6----10----12-----------
G---7----6----10----12----(x2)---
C---7----6----10----12-----------
5)
D--------------------------------------------
A--------------------------------------------
F--------------------------------------------
C----7----6----10----12----------------------       
G----7----6----10----12----(x2)--------------
C----7----6----10----12----------------------
     Let ring. . . . . .
6)
D----------
A----------
F---7-6----
C---7-6----
G---7-6----
C----------
7)
D-------------
A-------------
F-------------
C---7-------6-
G---7-(x9)--6-
C---7-------6-
8)
D------------
A------------
F------------
C---7--------
G---7---(x7)-
C---7--------
9)
D----------------------------------------------------------------------------
A----------------------------------------------------------------------------
F---5------5--------5----7----7-------7---4-----4--------4---2-----2------2ó
C------7------7------------9----9-----------5------5------------3-----3------
G----------------7----------------10------------------7-----------------5----
C----------------------------------------------------------------------------
|==============================P.M.=========================================|
10)
D--------------------------------
A--------------------------------
F--------------------------------
C---7----6----10----12-----------
G---7----6----10----12----(x2)---
C---7----6----10----12-----------
|============P.M.===============|
12)
D----------------------------------------------------------------------------
A----------------------------------------------------------------------------
F----------------------------------------------------------------------------
C--7----10----5----12--------------------------------------------------------
G--7----10----5----12--------------------------------------------------------
C--7----10----5----12--------------------------------------------------------
   Let ring. . . . . .


Order:
Intro: Acoustic, 1), 2), 3), 4), 5)
6). . .
Wake up
7). . . . . . . . . . . . . . . . . 
Grab a brush and put a little makeup 
7). . . . . . . . . . . . . . . . . . .
Hide the scars to fade away the shakeup 
7). . . . . . . . . . . . . . . . . . .
Why'd you leave the keys upon the table?
7). . . . . . . . . . . . . . .
Here you go create another fable

You wanted to
7). . . . . . . . . . . . . . . . .
Grab a brush and put a little makeup

You wanted to
7). . . . . . . . . . . . . . . . . . . 
Hide the scars to fade away the shakeup

You wanted to
7). . . . . . . . . . . . . . . . . . .
Why'd you leave the keys upon the table

You wanted to

8). . . . . . . . . . .
I don't think you trust
9). . . . . . . . . . . . . . 
In, my, self righteous suicide
. . . . . . . . . . . . . . .  4). . . .
I, cry, when angels deserve to die 
8).
Die
6). . .
Wake up,
7). . . . . . . . . . . . . . . . .
Grab a brush and put a little makeup
7). . . . . . . . . . . . . . . . . . .
Hide the scars to fade away the shakeup
7). . . . . . . . . . . . . . . . . . .
Why'd you leave the keys upon the table?
7). . . . . . . . . . . . . . .
Here you go create another fable

You wanted to
7). . . . . . . . . . . . . . . . .
Grab a brush and put a little makeup

You wanted to
7). . . . . . . . . . . . . . . . . . .
Hide the scars to fade away the shakeup

You wanted to
7). . . . . . . . . . . . . . . . . . .
Why'd you leave the keys upon the table

You wanted to
8). . . . . . . . . . .
I don't think you trust
9). . . . . . . . . . . . . .
In, my, self righteous suicide
. . . . . . . . . . . . . . . . .
I, cry, when angels deserve to die
9). . . . . . . . . . . . . .
In my, self righteous suicide
9). . . . . . . . . . . . . . . .
I, cry, when angels deserve to die
4). . . . .
10). . . . . . . . . . . . . .
Father, Father, Father, Father
5). . . . . . . . . . . . . . . . . . . . .
Father into your hands, I commend my spirit
5). . . . . . . . . . . . . . . . . . . . . . . .
Father, into your hands, Why have you forsaken me?
11). . . . . . . . . . .
In your eyes forsaken me
. . . . . . . . . . 11). . .         
In your thoughts forsaken me
. . . . . . . . . . . . . . .
In your heart forsaken, me oh
11). . . . . . . . . . . . . . 11).
Trust in my self righteous suicide
. . . . . . . . . . . . . . . . 11)
I, cry, when angels deserve to die
. . . . . . . . . . . . 11).
In my self righteous suicide
. . . . . . . . . . . . . . . . .
I, cry, when angels deserve to die

Thatís all, I think you should enjoy it. If you have something to say about my tab just e-mail me.

[ Tab from: http://www.guitaretab.com/s/system-of-a-down/25138.html ]
Related for Chop Suey! tab