Song name
# A B C D E F G H I J K L M N O P Q R S T U V W X Y Z

System Of A Down - Sugar tab

Artist/Band - System Of A Down
Album - System Of A Down
Song - Sugar

Tuning: Drop C (C G C F A D)

Key:
~  = Let String Ring
\  = Slide Downwards
PM = Palm Mute



Intro Chorus:
D]--------------------------------------------------------|
A]--------------------------------------------------------|
F]--------------------------------------------------------|
C]--0--7--6--5----0--7--6--5----0--7--6--5----0--7--6--5--| x4
G]--0--7--6--5----0--7--6--5----0--7--6--5----0--7--6--5--|
C]--0--7--6--5----0--7--6--5----0--7--6--5----0--7--6--5--|


Verse 1:
D]------13-----13--12-------------10\-------10\--|
A]--10-----------------13-----10-----------------|
F]-----------------------------------------------|
C]-----------------------------------------------| x3
G]-----------------------------------------------|
C]-----------------------------------------------|

D]------13~----13~-12~-------------10~---10~---10~---10~-----|
A]--10~----------------13~----10~-----10~---10~---10~---10~--|
F]-----------------------------------------------------------|
C]-----------------------------------------------------------|
G]-----------------------------------------------------------|
C]-----------------------------------------------------------|


Chorus:
D]--------------------------------------------------------|
A]--------------------------------------------------------|
F]--------------------------------------------------------|
C]--0--7--6--5----0--7--6--5----0--7--6--5----0--7--6--5--| x4
G]--0--7--6--5----0--7--6--5----0--7--6--5----0--7--6--5--|
C]--0--7--6--5----0--7--6--5----0--7--6--5----0--7--6--5--|


Verse 2:
D]------13-----13--12-------------10\-------10\--|
A]--10-----------------13-----10-----------------|
F]-----------------------------------------------|
C]-----------------------------------------------| x2
G]-----------------------------------------------|
C]-----------------------------------------------|

D]------13~----13~-12~-------------10~---10~---10~---10~-----|
A]--10~----------------13~----10~-----10~---10~---10~---10~--|
F]-----------------------------------------------------------|
C]-----------------------------------------------------------|
G]-----------------------------------------------------------|
C]-----------------------------------------------------------|

Chorus:
D]--------------------------------------------------------|
A]--------------------------------------------------------|
F]--------------------------------------------------------|
C]--0--7--6--5----0--7--6--5----0--7--6--5----0--7--6--5--| x4
G]--0--7--6--5----0--7--6--5----0--7--6--5----0--7--6--5--|
C]--0--7--6--5----0--7--6--5----0--7--6--5----0--7--6--5--|


Bridge:
D]--------------------------------------------------|
A]--------------------------------------------------|
F]--------------------------------------------------|
C]--------------------------------------------------|
G]--1---1-0------1---1-0------1---1-0------1---1-0--|
C]--1---1-0------1---1-0------1---1-0------1---1-0--|

D]-------------------------------|
A]-------------------------------|
F]-------------------------------| 
C]-------------------------------| x12 
G]--1---13\--1-0-1-0---12\--1-0--| (Gradually pick up speed 
C]--1---13\--1-0-1-0---12\--1-0--|  each time you play it.)
PM           . . . .        . .

D]--------------------------------------------------------|
A]--------------------------------------------------------|
F]--------------------------------------------------------|
C]--------------------------------------------------------| x2
G]--0--7--6--5----0--7--6--5----0--7--6--5----0--7--6--5--|
C]--0--7--6--5----0--7--6--5----0--7--6--5----0--7--6--5--|
PM  .  .  .  .    .  .  .  .    .  .  .  .    .  .  .  .

D]--------------------------------------------------------|
A]--------------------------------------------------------|
F]--------------------------------------------------------|
C]--0--7--6--5----0--7--6--5----0--7--6--5----0--7--6--5--| x2
G]--0--7--6--5----0--7--6--5----0--7--6--5----0--7--6--5--|
C]--0--7--6--5----0--7--6--5----0--7--6--5----0--7--6--5--|
Tap to rate this tab
# A B C D E F G H I J K L M N O P Q R S T U V W X Y Z