Song name
# A B C D E F G H I J K L M N O P Q R S T U V W X Y Z

System Of A Down - Atwa tab

Help us improve GuitareTab! Take a short survey!
This song is very easy to play and the corrected way.....  listen to the cd and you'll figure it out!!



Intro

--------------------------------------------------------------
--------------------------------------------------------------
-----1-------0------3------5------6-----5-----3-----1--
--------------------------------------------------------------
--------------------------------------------------------------
--1-----1--0-----1/3-----3/4-----4/6----6/4----4/3----3/1-----



-------------------------------------------------------------
-------------------------------------------------------------
-------------------------------------------------------------
----3-3-3-3-3-3-3-----3-3-3-3-3-3-3--------------------------
----3-3-3-3-3-3-3-----3-3-3-3-3-3-3--------------------------
----1-1-1-1-1-1-1-----1-1-1-1-1-1-1--------------------------
You don't care about how I feel, I dont feel it anymore



-------------------------------------------------------------
-------------------------------------------------------------
--1-----3-----5-----6-----5-----3-----1----------------------
-------------------------------------------------------------
-------------------------------------------------------------
1---1-0---3/4---4/6---6/4---4/3---3/1------------------------



-------------------------------------------------------------
-------------------------------------------------------------
-------------------------------------------------------------
3-3-3-3-3-3-3------3-3-3-3-3-3-3-----------------------------
3-3-3-3-3-3-3------3-3-3-3-3-3-3-----------------------------
1-1-1-1-1-1-1------1-1-1-1-1-1-1-----------------------------



-------------------------------
-------------------------------
-------------------------------
3-3-3-3-/4-4-------------------
3-3-3-3-/4-4-------------------
1-1-1-1-/2-2-------------------
I don't sleep ANYMORE!!!!



------------------------------------------------------------
------------------------------------------------------------
1-1-0-0-/3-3/-5-5/-6-6/-5-5/-3-3/-1-1-----------------------
------------------------------------------------------------
------------------------------------------------------------
------------------------------------------------------------
2nd time has an effect



------------------------------------------------------------
------------------------------------------------------------
------------------------------------------------------------
3-3--2-2--5-5--7-7--8-8--7-7--5-5--3-3----------------------
3-3--2-2--5-5--7-7--8-8--7-7--5-5--3-3----------------------
1-1--0-0--3-3--5-5--6-6--5-5--3-3--1-1----------------------



------------------------------------------------------------
------------------------------------------------------------
------------------------------------------------------------
3-3-3-3-3-3-3----3-3-3-3-3-3-3------------------------------
3-3-3-3-3-3-3----3-3-3-3-3-3-3------------------------------
1-1-1-1-1-1-1----1-1-1-1-1-1-1------------------------------



-----------------------------------------------------------
-----------------------------------------------------------
-----------------------------------------------------------
3-3-3-3-/-4-4----------------------------------------------
3-3-3-3-/-4-4----------------------------------------------
1-1-1-1-/-2-2----------------------------------------------



If you have any complaints from this e-mail me at mattmartinez2@charter.net and tell me whats wrong w/ it 
because if you've got a complaint on this tab you can't play worth a s*** thanks

/ = slide
Related for Atwa tab